  0
SECTION
  2
BLOCKS
  0
ENDSEC
  0
SECTION
  2
ENTITIES
  0
LINE
  8
0
 10
61.2698
 20
-163.878
 11
66.9696
 21
-161.679
  0
LINE
  8
0
 10
66.9696
 20
-161.679
 11
74.8221
 21
-158.198
  0
LINE
  8
0
 10
74.8221
 20
-158.198
 11
82.4944
 21
-154.336
  0
LINE
  8
0
 10
82.4944
 20
-154.336
 11
89.968
 21
-150.103
  0
LINE
  8
0
 10
89.968
 20
-150.103
 11
97.2248
 21
-145.507
  0
LINE
  8
0
 10
97.2248
 20
-145.507
 11
104.247
 21
-140.561
  0
LINE
  8
0
 10
104.247
 20
-140.561
 11
111.019
 21
-135.277
  0
LINE
  8
0
 10
111.019
 20
-135.277
 11
117.523
 21
-129.666
  0
LINE
  8
0
 10
117.523
 20
-129.666
 11
123.744
 21
-123.744
  0
LINE
  8
0
 10
123.744
 20
-123.744
 11
129.666
 21
-117.523
  0
LINE
  8
0
 10
129.666
 20
-117.523
 11
135.277
 21
-111.019
  0
LINE
  8
0
 10
135.277
 20
-111.019
 11
140.561
 21
-104.247
  0
LINE
  8
0
 10
140.561
 20
-104.247
 11
145.507
 21
-97.2248
  0
LINE
  8
0
 10
145.507
 20
-97.2248
 11
150.103
 21
-89.968
  0
LINE
  8
0
 10
150.103
 20
-89.968
 11
154.336
 21
-82.4944
  0
LINE
  8
0
 10
154.336
 20
-82.4944
 11
158.198
 21
-74.8221
  0
LINE
  8
0
 10
158.198
 20
-74.8221
 11
161.679
 21
-66.9696
  0
LINE
  8
0
 10
161.679
 20
-66.9696
 11
164.77
 21
-58.9557
  0
LINE
  8
0
 10
164.77
 20
-58.9557
 11
167.465
 21
-50.7998
  0
LINE
  8
0
 10
167.465
 20
-50.7998
 11
169.755
 21
-42.5215
  0
LINE
  8
0
 10
169.755
 20
-42.5215
 11
171.637
 21
-34.1408
  0
LINE
  8
0
 10
171.637
 20
-34.1408
 11
173.106
 21
-25.6778
  0
LINE
  8
0
 10
173.106
 20
-25.6778
 11
174.157
 21
-17.153
  0
LINE
  8
0
 10
174.157
 20
-17.153
 11
174.789
 21
-8.58684
  0
LINE
  8
0
 10
174.789
 20
-8.58684
 11
175
 21
0
  0
LINE
  8
0
 10
175
 20
0
 11
174.789
 21
8.58684
  0
LINE
  8
0
 10
174.789
 20
8.58684
 11
174.157
 21
17.153
  0
LINE
  8
0
 10
174.157
 20
17.153
 11
173.106
 21
25.6778
  0
LINE
  8
0
 10
173.106
 20
25.6778
 11
172.552
 21
28.8691
  0
LINE
  8
0
 10
172.552
 20
28.8691
 11
196.299
 21
70
  0
LINE
  8
0
 10
196.299
 20
70
 11
158.771
 21
135
  0
LINE
  8
0
 10
158.771
 20
135
 11
111.34
 21
135
  0
LINE
  8
0
 10
111.34
 20
135
 11
111.019
 21
135.277
  0
LINE
  8
0
 10
111.019
 20
135.277
 11
104.247
 21
140.561
  0
LINE
  8
0
 10
104.247
 20
140.561
 11
97.2248
 21
145.507
  0
LINE
  8
0
 10
97.2248
 20
145.507
 11
89.968
 21
150.103
  0
LINE
  8
0
 10
89.968
 20
150.103
 11
82.4944
 21
154.336
  0
LINE
  8
0
 10
82.4944
 20
154.336
 11
74.8221
 21
158.198
  0
LINE
  8
0
 10
74.8221
 20
158.198
 11
66.9696
 21
161.679
  0
LINE
  8
0
 10
66.9696
 20
161.679
 11
58.9557
 21
164.77
  0
LINE
  8
0
 10
58.9557
 20
164.77
 11
50.7998
 21
167.465
  0
LINE
  8
0
 10
50.7998
 20
167.465
 11
42.5215
 21
169.755
  0
LINE
  8
0
 10
42.5215
 20
169.755
 11
34.1408
 21
171.637
  0
LINE
  8
0
 10
34.1408
 20
171.637
 11
25.6778
 21
173.106
  0
LINE
  8
0
 10
25.6778
 20
173.106
 11
17.153
 21
174.157
  0
LINE
  8
0
 10
17.153
 20
174.157
 11
8.58684
 21
174.789
  0
LINE
  8
0
 10
8.58684
 20
174.789
 11
0
 21
175
  0
LINE
  8
0
 10
0
 20
175
 11
-8.58684
 21
174.789
  0
LINE
  8
0
 10
-8.58684
 20
174.789
 11
-17.153
 21
174.157
  0
LINE
  8
0
 10
-17.153
 20
174.157
 11
-25.6778
 21
173.106
  0
LINE
  8
0
 10
-25.6778
 20
173.106
 11
-34.1408
 21
171.637
  0
LINE
  8
0
 10
-34.1408
 20
171.637
 11
-42.5215
 21
169.755
  0
LINE
  8
0
 10
-42.5215
 20
169.755
 11
-50.7998
 21
167.465
  0
LINE
  8
0
 10
-50.7998
 20
167.465
 11
-58.9557
 21
164.77
  0
LINE
  8
0
 10
-58.9557
 20
164.77
 11
-66.9696
 21
161.679
  0
LINE
  8
0
 10
-66.9696
 20
161.679
 11
-74.8221
 21
158.198
  0
LINE
  8
0
 10
-74.8221
 20
158.198
 11
-82.4944
 21
154.336
  0
LINE
  8
0
 10
-82.4944
 20
154.336
 11
-89.968
 21
150.103
  0
LINE
  8
0
 10
-89.968
 20
150.103
 11
-97.2248
 21
145.507
  0
LINE
  8
0
 10
-97.2248
 20
145.507
 11
-104.247
 21
140.561
  0
LINE
  8
0
 10
-104.247
 20
140.561
 11
-111.019
 21
135.277
  0
LINE
  8
0
 10
-111.019
 20
135.277
 11
-111.34
 21
135
  0
LINE
  8
0
 10
-111.34
 20
135
 11
-158.771
 21
135
  0
LINE
  8
0
 10
-158.771
 20
135
 11
-196.299
 21
70
  0
LINE
  8
0
 10
-196.299
 20
70
 11
-172.552
 21
28.8691
  0
LINE
  8
0
 10
-172.552
 20
28.8691
 11
-173.106
 21
25.6778
  0
LINE
  8
0
 10
-173.106
 20
25.6778
 11
-174.157
 21
17.153
  0
LINE
  8
0
 10
-174.157
 20
17.153
 11
-174.789
 21
8.58684
  0
LINE
  8
0
 10
-174.789
 20
8.58684
 11
-175
 21
0
  0
LINE
  8
0
 10
-175
 20
0
 11
-174.789
 21
-8.58684
  0
LINE
  8
0
 10
-174.789
 20
-8.58684
 11
-174.157
 21
-17.153
  0
LINE
  8
0
 10
-174.157
 20
-17.153
 11
-173.106
 21
-25.6778
  0
LINE
  8
0
 10
-173.106
 20
-25.6778
 11
-171.637
 21
-34.1408
  0
LINE
  8
0
 10
-171.637
 20
-34.1408
 11
-169.755
 21
-42.5215
  0
LINE
  8
0
 10
-169.755
 20
-42.5215
 11
-167.465
 21
-50.7998
  0
LINE
  8
0
 10
-167.465
 20
-50.7998
 11
-164.77
 21
-58.9557
  0
LINE
  8
0
 10
-164.77
 20
-58.9557
 11
-161.679
 21
-66.9696
  0
LINE
  8
0
 10
-161.679
 20
-66.9696
 11
-158.198
 21
-74.8221
  0
LINE
  8
0
 10
-158.198
 20
-74.8221
 11
-154.336
 21
-82.4944
  0
LINE
  8
0
 10
-154.336
 20
-82.4944
 11
-150.103
 21
-89.968
  0
LINE
  8
0
 10
-150.103
 20
-89.968
 11
-145.507
 21
-97.2248
  0
LINE
  8
0
 10
-145.507
 20
-97.2248
 11
-140.561
 21
-104.247
  0
LINE
  8
0
 10
-140.561
 20
-104.247
 11
-135.277
 21
-111.019
  0
LINE
  8
0
 10
-135.277
 20
-111.019
 11
-129.666
 21
-117.523
  0
LINE
  8
0
 10
-129.666
 20
-117.523
 11
-123.744
 21
-123.744
  0
LINE
  8
0
 10
-123.744
 20
-123.744
 11
-117.523
 21
-129.666
  0
LINE
  8
0
 10
-117.523
 20
-129.666
 11
-111.019
 21
-135.277
  0
LINE
  8
0
 10
-111.019
 20
-135.277
 11
-104.247
 21
-140.561
  0
LINE
  8
0
 10
-104.247
 20
-140.561
 11
-97.2248
 21
-145.507
  0
LINE
  8
0
 10
-97.2248
 20
-145.507
 11
-89.968
 21
-150.103
  0
LINE
  8
0
 10
-89.968
 20
-150.103
 11
-82.4944
 21
-154.336
  0
LINE
  8
0
 10
-82.4944
 20
-154.336
 11
-74.8221
 21
-158.198
  0
LINE
  8
0
 10
-74.8221
 20
-158.198
 11
-66.9696
 21
-161.679
  0
LINE
  8
0
 10
-66.9696
 20
-161.679
 11
-61.2698
 21
-163.878
  0
LINE
  8
0
 10
-61.2698
 20
-163.878
 11
-37.5278
 21
-205
  0
LINE
  8
0
 10
-37.5278
 20
-205
 11
37.5278
 21
-205
  0
LINE
  8
0
 10
37.5278
 20
-205
 11
61.2698
 21
-163.878
  0
LINE
  8
0
 10
153.228
 20
121.066
 11
152.769
 21
121.239
  0
LINE
  8
0
 10
152.769
 20
121.239
 11
152.353
 21
121.497
  0
LINE
  8
0
 10
152.353
 20
121.497
 11
151.995
 21
121.832
  0
LINE
  8
0
 10
151.995
 20
121.832
 11
151.71
 21
122.231
  0
LINE
  8
0
 10
151.71
 20
122.231
 11
151.508
 21
122.677
  0
LINE
  8
0
 10
151.508
 20
122.677
 11
151.396
 21
123.154
  0
LINE
  8
0
 10
151.396
 20
123.154
 11
151.38
 21
123.644
  0
LINE
  8
0
 10
151.38
 20
123.644
 11
151.46
 21
124.128
  0
LINE
  8
0
 10
151.46
 20
124.128
 11
151.633
 21
124.586
  0
LINE
  8
0
 10
151.633
 20
124.586
 11
151.892
 21
125.003
  0
LINE
  8
0
 10
151.892
 20
125.003
 11
152.227
 21
125.36
  0
LINE
  8
0
 10
152.227
 20
125.36
 11
152.625
 21
125.646
  0
LINE
  8
0
 10
152.625
 20
125.646
 11
153.071
 21
125.848
  0
LINE
  8
0
 10
153.071
 20
125.848
 11
153.549
 21
125.959
  0
LINE
  8
0
 10
153.549
 20
125.959
 11
154.038
 21
125.975
  0
LINE
  8
0
 10
154.038
 20
125.975
 11
154.522
 21
125.896
  0
LINE
  8
0
 10
154.522
 20
125.896
 11
154.981
 21
125.723
  0
LINE
  8
0
 10
154.981
 20
125.723
 11
155.397
 21
125.464
  0
LINE
  8
0
 10
155.397
 20
125.464
 11
155.755
 21
125.129
  0
LINE
  8
0
 10
155.755
 20
125.129
 11
156.04
 21
124.731
  0
LINE
  8
0
 10
156.04
 20
124.731
 11
156.242
 21
124.284
  0
LINE
  8
0
 10
156.242
 20
124.284
 11
156.354
 21
123.807
  0
LINE
  8
0
 10
156.354
 20
123.807
 11
156.37
 21
123.317
  0
LINE
  8
0
 10
156.37
 20
123.317
 11
156.29
 21
122.834
  0
LINE
  8
0
 10
156.29
 20
122.834
 11
156.117
 21
122.375
  0
LINE
  8
0
 10
156.117
 20
122.375
 11
155.858
 21
121.959
  0
LINE
  8
0
 10
155.858
 20
121.959
 11
155.523
 21
121.601
  0
LINE
  8
0
 10
155.523
 20
121.601
 11
155.125
 21
121.316
  0
LINE
  8
0
 10
155.125
 20
121.316
 11
154.679
 21
121.113
  0
LINE
  8
0
 10
154.679
 20
121.113
 11
154.201
 21
121.002
  0
LINE
  8
0
 10
154.201
 20
121.002
 11
153.711
 21
120.986
  0
LINE
  8
0
 10
153.711
 20
120.986
 11
153.228
 21
121.066
  0
LINE
  8
0
 10
-154.201
 20
121.002
 11
-154.679
 21
121.113
  0
LINE
  8
0
 10
-154.679
 20
121.113
 11
-155.125
 21
121.316
  0
LINE
  8
0
 10
-155.125
 20
121.316
 11
-155.523
 21
121.601
  0
LINE
  8
0
 10
-155.523
 20
121.601
 11
-155.858
 21
121.959
  0
LINE
  8
0
 10
-155.858
 20
121.959
 11
-156.117
 21
122.375
  0
LINE
  8
0
 10
-156.117
 20
122.375
 11
-156.29
 21
122.834
  0
LINE
  8
0
 10
-156.29
 20
122.834
 11
-156.37
 21
123.317
  0
LINE
  8
0
 10
-156.37
 20
123.317
 11
-156.354
 21
123.807
  0
LINE
  8
0
 10
-156.354
 20
123.807
 11
-156.242
 21
124.284
  0
LINE
  8
0
 10
-156.242
 20
124.284
 11
-156.04
 21
124.731
  0
LINE
  8
0
 10
-156.04
 20
124.731
 11
-155.755
 21
125.129
  0
LINE
  8
0
 10
-155.755
 20
125.129
 11
-155.397
 21
125.464
  0
LINE
  8
0
 10
-155.397
 20
125.464
 11
-154.981
 21
125.723
  0
LINE
  8
0
 10
-154.981
 20
125.723
 11
-154.522
 21
125.896
  0
LINE
  8
0
 10
-154.522
 20
125.896
 11
-154.038
 21
125.975
  0
LINE
  8
0
 10
-154.038
 20
125.975
 11
-153.549
 21
125.959
  0
LINE
  8
0
 10
-153.549
 20
125.959
 11
-153.071
 21
125.848
  0
LINE
  8
0
 10
-153.071
 20
125.848
 11
-152.625
 21
125.646
  0
LINE
  8
0
 10
-152.625
 20
125.646
 11
-152.227
 21
125.36
  0
LINE
  8
0
 10
-152.227
 20
125.36
 11
-151.892
 21
125.003
  0
LINE
  8
0
 10
-151.892
 20
125.003
 11
-151.633
 21
124.586
  0
LINE
  8
0
 10
-151.633
 20
124.586
 11
-151.46
 21
124.128
  0
LINE
  8
0
 10
-151.46
 20
124.128
 11
-151.38
 21
123.644
  0
LINE
  8
0
 10
-151.38
 20
123.644
 11
-151.396
 21
123.154
  0
LINE
  8
0
 10
-151.396
 20
123.154
 11
-151.508
 21
122.677
  0
LINE
  8
0
 10
-151.508
 20
122.677
 11
-151.71
 21
122.231
  0
LINE
  8
0
 10
-151.71
 20
122.231
 11
-151.995
 21
121.832
  0
LINE
  8
0
 10
-151.995
 20
121.832
 11
-152.353
 21
121.497
  0
LINE
  8
0
 10
-152.353
 20
121.497
 11
-152.769
 21
121.239
  0
LINE
  8
0
 10
-152.769
 20
121.239
 11
-153.228
 21
121.066
  0
LINE
  8
0
 10
-153.228
 20
121.066
 11
-153.711
 21
120.986
  0
LINE
  8
0
 10
-153.711
 20
120.986
 11
-154.201
 21
121.002
  0
LINE
  8
0
 10
-184.201
 20
69.0406
 11
-184.679
 21
69.1519
  0
LINE
  8
0
 10
-184.679
 20
69.1519
 11
-185.125
 21
69.3542
  0
LINE
  8
0
 10
-185.125
 20
69.3542
 11
-185.523
 21
69.6396
  0
LINE
  8
0
 10
-185.523
 20
69.6396
 11
-185.858
 21
69.9973
  0
LINE
  8
0
 10
-185.858
 20
69.9973
 11
-186.117
 21
70.4135
  0
LINE
  8
0
 10
-186.117
 20
70.4135
 11
-186.29
 21
70.8722
  0
LINE
  8
0
 10
-186.29
 20
70.8722
 11
-186.37
 21
71.3557
  0
LINE
  8
0
 10
-186.37
 20
71.3557
 11
-186.354
 21
71.8456
  0
LINE
  8
0
 10
-186.354
 20
71.8456
 11
-186.242
 21
72.3228
  0
LINE
  8
0
 10
-186.242
 20
72.3228
 11
-186.04
 21
72.7692
  0
LINE
  8
0
 10
-186.04
 20
72.7692
 11
-185.755
 21
73.1676
  0
LINE
  8
0
 10
-185.755
 20
73.1676
 11
-185.397
 21
73.5026
  0
LINE
  8
0
 10
-185.397
 20
73.5026
 11
-184.981
 21
73.7614
  0
LINE
  8
0
 10
-184.981
 20
73.7614
 11
-184.522
 21
73.9341
  0
LINE
  8
0
 10
-184.522
 20
73.9341
 11
-184.038
 21
74.0139
  0
LINE
  8
0
 10
-184.038
 20
74.0139
 11
-183.549
 21
73.9978
  0
LINE
  8
0
 10
-183.549
 20
73.9978
 11
-183.071
 21
73.8866
  0
LINE
  8
0
 10
-183.071
 20
73.8866
 11
-182.625
 21
73.6843
  0
LINE
  8
0
 10
-182.625
 20
73.6843
 11
-182.227
 21
73.3988
  0
LINE
  8
0
 10
-182.227
 20
73.3988
 11
-181.892
 21
73.0411
  0
LINE
  8
0
 10
-181.892
 20
73.0411
 11
-181.633
 21
72.625
  0
LINE
  8
0
 10
-181.633
 20
72.625
 11
-181.46
 21
72.1663
  0
LINE
  8
0
 10
-181.46
 20
72.1663
 11
-181.38
 21
71.6827
  0
LINE
  8
0
 10
-181.38
 20
71.6827
 11
-181.396
 21
71.1929
  0
LINE
  8
0
 10
-181.396
 20
71.1929
 11
-181.508
 21
70.7156
  0
LINE
  8
0
 10
-181.508
 20
70.7156
 11
-181.71
 21
70.2692
  0
LINE
  8
0
 10
-181.71
 20
70.2692
 11
-181.995
 21
69.8709
  0
LINE
  8
0
 10
-181.995
 20
69.8709
 11
-182.353
 21
69.5359
  0
LINE
  8
0
 10
-182.353
 20
69.5359
 11
-182.769
 21
69.2771
  0
LINE
  8
0
 10
-182.769
 20
69.2771
 11
-183.228
 21
69.1044
  0
LINE
  8
0
 10
-183.228
 20
69.1044
 11
-183.711
 21
69.0246
  0
LINE
  8
0
 10
-183.711
 20
69.0246
 11
-184.201
 21
69.0406
  0
LINE
  8
0
 10
183.228
 20
69.1044
 11
182.769
 21
69.2771
  0
LINE
  8
0
 10
182.769
 20
69.2771
 11
182.353
 21
69.5359
  0
LINE
  8
0
 10
182.353
 20
69.5359
 11
181.995
 21
69.8709
  0
LINE
  8
0
 10
181.995
 20
69.8709
 11
181.71
 21
70.2692
  0
LINE
  8
0
 10
181.71
 20
70.2692
 11
181.508
 21
70.7156
  0
LINE
  8
0
 10
181.508
 20
70.7156
 11
181.396
 21
71.1929
  0
LINE
  8
0
 10
181.396
 20
71.1929
 11
181.38
 21
71.6827
  0
LINE
  8
0
 10
181.38
 20
71.6827
 11
181.46
 21
72.1663
  0
LINE
  8
0
 10
181.46
 20
72.1663
 11
181.633
 21
72.625
  0
LINE
  8
0
 10
181.633
 20
72.625
 11
181.892
 21
73.0411
  0
LINE
  8
0
 10
181.892
 20
73.0411
 11
182.227
 21
73.3988
  0
LINE
  8
0
 10
182.227
 20
73.3988
 11
182.625
 21
73.6843
  0
LINE
  8
0
 10
182.625
 20
73.6843
 11
183.071
 21
73.8866
  0
LINE
  8
0
 10
183.071
 20
73.8866
 11
183.549
 21
73.9978
  0
LINE
  8
0
 10
183.549
 20
73.9978
 11
184.038
 21
74.0139
  0
LINE
  8
0
 10
184.038
 20
74.0139
 11
184.522
 21
73.9341
  0
LINE
  8
0
 10
184.522
 20
73.9341
 11
184.981
 21
73.7614
  0
LINE
  8
0
 10
184.981
 20
73.7614
 11
185.397
 21
73.5026
  0
LINE
  8
0
 10
185.397
 20
73.5026
 11
185.755
 21
73.1676
  0
LINE
  8
0
 10
185.755
 20
73.1676
 11
186.04
 21
72.7692
  0
LINE
  8
0
 10
186.04
 20
72.7692
 11
186.242
 21
72.3228
  0
LINE
  8
0
 10
186.242
 20
72.3228
 11
186.354
 21
71.8456
  0
LINE
  8
0
 10
186.354
 20
71.8456
 11
186.37
 21
71.3557
  0
LINE
  8
0
 10
186.37
 20
71.3557
 11
186.29
 21
70.8722
  0
LINE
  8
0
 10
186.29
 20
70.8722
 11
186.117
 21
70.4135
  0
LINE
  8
0
 10
186.117
 20
70.4135
 11
185.858
 21
69.9973
  0
LINE
  8
0
 10
185.858
 20
69.9973
 11
185.523
 21
69.6396
  0
LINE
  8
0
 10
185.523
 20
69.6396
 11
185.125
 21
69.3542
  0
LINE
  8
0
 10
185.125
 20
69.3542
 11
184.679
 21
69.1519
  0
LINE
  8
0
 10
184.679
 20
69.1519
 11
184.201
 21
69.0406
  0
LINE
  8
0
 10
184.201
 20
69.0406
 11
183.711
 21
69.0246
  0
LINE
  8
0
 10
183.711
 20
69.0246
 11
183.228
 21
69.1044
  0
LINE
  8
0
 10
27.9213
 20
-193.611
 11
28.2322
 21
-193.232
  0
LINE
  8
0
 10
28.2322
 20
-193.232
 11
28.6111
 21
-192.921
  0
LINE
  8
0
 10
28.6111
 20
-192.921
 11
29.0433
 21
-192.69
  0
LINE
  8
0
 10
29.0433
 20
-192.69
 11
29.5123
 21
-192.548
  0
LINE
  8
0
 10
29.5123
 20
-192.548
 11
30
 21
-192.5
  0
LINE
  8
0
 10
30
 20
-192.5
 11
30.4877
 21
-192.548
  0
LINE
  8
0
 10
30.4877
 20
-192.548
 11
30.9567
 21
-192.69
  0
LINE
  8
0
 10
30.9567
 20
-192.69
 11
31.3889
 21
-192.921
  0
LINE
  8
0
 10
31.3889
 20
-192.921
 11
31.7678
 21
-193.232
  0
LINE
  8
0
 10
31.7678
 20
-193.232
 11
32.0787
 21
-193.611
  0
LINE
  8
0
 10
32.0787
 20
-193.611
 11
32.3097
 21
-194.043
  0
LINE
  8
0
 10
32.3097
 20
-194.043
 11
32.452
 21
-194.512
  0
LINE
  8
0
 10
32.452
 20
-194.512
 11
32.5
 21
-195
  0
LINE
  8
0
 10
32.5
 20
-195
 11
32.452
 21
-195.488
  0
LINE
  8
0
 10
32.452
 20
-195.488
 11
32.3097
 21
-195.957
  0
LINE
  8
0
 10
32.3097
 20
-195.957
 11
32.0787
 21
-196.389
  0
LINE
  8
0
 10
32.0787
 20
-196.389
 11
31.7678
 21
-196.768
  0
LINE
  8
0
 10
31.7678
 20
-196.768
 11
31.3889
 21
-197.079
  0
LINE
  8
0
 10
31.3889
 20
-197.079
 11
30.9567
 21
-197.31
  0
LINE
  8
0
 10
30.9567
 20
-197.31
 11
30.4877
 21
-197.452
  0
LINE
  8
0
 10
30.4877
 20
-197.452
 11
30
 21
-197.5
  0
LINE
  8
0
 10
30
 20
-197.5
 11
29.5123
 21
-197.452
  0
LINE
  8
0
 10
29.5123
 20
-197.452
 11
29.0433
 21
-197.31
  0
LINE
  8
0
 10
29.0433
 20
-197.31
 11
28.6111
 21
-197.079
  0
LINE
  8
0
 10
28.6111
 20
-197.079
 11
28.2322
 21
-196.768
  0
LINE
  8
0
 10
28.2322
 20
-196.768
 11
27.9213
 21
-196.389
  0
LINE
  8
0
 10
27.9213
 20
-196.389
 11
27.6903
 21
-195.957
  0
LINE
  8
0
 10
27.6903
 20
-195.957
 11
27.548
 21
-195.488
  0
LINE
  8
0
 10
27.548
 20
-195.488
 11
27.5
 21
-195
  0
LINE
  8
0
 10
27.5
 20
-195
 11
27.548
 21
-194.512
  0
LINE
  8
0
 10
27.548
 20
-194.512
 11
27.6903
 21
-194.043
  0
LINE
  8
0
 10
27.6903
 20
-194.043
 11
27.9213
 21
-193.611
  0
LINE
  8
0
 10
-27.548
 20
-195.488
 11
-27.6903
 21
-195.957
  0
LINE
  8
0
 10
-27.6903
 20
-195.957
 11
-27.9213
 21
-196.389
  0
LINE
  8
0
 10
-27.9213
 20
-196.389
 11
-28.2322
 21
-196.768
  0
LINE
  8
0
 10
-28.2322
 20
-196.768
 11
-28.6111
 21
-197.079
  0
LINE
  8
0
 10
-28.6111
 20
-197.079
 11
-29.0433
 21
-197.31
  0
LINE
  8
0
 10
-29.0433
 20
-197.31
 11
-29.5123
 21
-197.452
  0
LINE
  8
0
 10
-29.5123
 20
-197.452
 11
-30
 21
-197.5
  0
LINE
  8
0
 10
-30
 20
-197.5
 11
-30.4877
 21
-197.452
  0
LINE
  8
0
 10
-30.4877
 20
-197.452
 11
-30.9567
 21
-197.31
  0
LINE
  8
0
 10
-30.9567
 20
-197.31
 11
-31.3889
 21
-197.079
  0
LINE
  8
0
 10
-31.3889
 20
-197.079
 11
-31.7678
 21
-196.768
  0
LINE
  8
0
 10
-31.7678
 20
-196.768
 11
-32.0787
 21
-196.389
  0
LINE
  8
0
 10
-32.0787
 20
-196.389
 11
-32.3097
 21
-195.957
  0
LINE
  8
0
 10
-32.3097
 20
-195.957
 11
-32.452
 21
-195.488
  0
LINE
  8
0
 10
-32.452
 20
-195.488
 11
-32.5
 21
-195
  0
LINE
  8
0
 10
-32.5
 20
-195
 11
-32.452
 21
-194.512
  0
LINE
  8
0
 10
-32.452
 20
-194.512
 11
-32.3097
 21
-194.043
  0
LINE
  8
0
 10
-32.3097
 20
-194.043
 11
-32.0787
 21
-193.611
  0
LINE
  8
0
 10
-32.0787
 20
-193.611
 11
-31.7678
 21
-193.232
  0
LINE
  8
0
 10
-31.7678
 20
-193.232
 11
-31.3889
 21
-192.921
  0
LINE
  8
0
 10
-31.3889
 20
-192.921
 11
-30.9567
 21
-192.69
  0
LINE
  8
0
 10
-30.9567
 20
-192.69
 11
-30.4877
 21
-192.548
  0
LINE
  8
0
 10
-30.4877
 20
-192.548
 11
-30
 21
-192.5
  0
LINE
  8
0
 10
-30
 20
-192.5
 11
-29.5123
 21
-192.548
  0
LINE
  8
0
 10
-29.5123
 20
-192.548
 11
-29.0433
 21
-192.69
  0
LINE
  8
0
 10
-29.0433
 20
-192.69
 11
-28.6111
 21
-192.921
  0
LINE
  8
0
 10
-28.6111
 20
-192.921
 11
-28.2322
 21
-193.232
  0
LINE
  8
0
 10
-28.2322
 20
-193.232
 11
-27.9213
 21
-193.611
  0
LINE
  8
0
 10
-27.9213
 20
-193.611
 11
-27.6903
 21
-194.043
  0
LINE
  8
0
 10
-27.6903
 20
-194.043
 11
-27.548
 21
-194.512
  0
LINE
  8
0
 10
-27.548
 20
-194.512
 11
-27.5
 21
-195
  0
LINE
  8
0
 10
-27.5
 20
-195
 11
-27.548
 21
-195.488
  0
ENDSEC
  0
SECTION
  2
OBJECTS
  0
DICTIONARY
  0
ENDSEC
  0
EOF
