  0
SECTION
  2
BLOCKS
  0
ENDSEC
  0
SECTION
  2
ENTITIES
  0
LINE
  8
0
 10
4.29471
 20
-174.947
 11
8.58684
 21
-174.789
  0
LINE
  8
0
 10
8.58684
 20
-174.789
 11
12.8738
 21
-174.526
  0
LINE
  8
0
 10
12.8738
 20
-174.526
 11
17.153
 21
-174.157
  0
LINE
  8
0
 10
17.153
 20
-174.157
 11
21.4219
 21
-173.684
  0
LINE
  8
0
 10
21.4219
 20
-173.684
 11
25.6778
 21
-173.106
  0
LINE
  8
0
 10
25.6778
 20
-173.106
 11
29.9183
 21
-172.424
  0
LINE
  8
0
 10
29.9183
 20
-172.424
 11
34.1408
 21
-171.637
  0
LINE
  8
0
 10
34.1408
 20
-171.637
 11
38.3427
 21
-170.748
  0
LINE
  8
0
 10
38.3427
 20
-170.748
 11
42.5215
 21
-169.755
  0
LINE
  8
0
 10
42.5215
 20
-169.755
 11
46.6747
 21
-168.661
  0
LINE
  8
0
 10
46.6747
 20
-168.661
 11
50.7998
 21
-167.465
  0
LINE
  8
0
 10
50.7998
 20
-167.465
 11
54.8943
 21
-166.167
  0
LINE
  8
0
 10
54.8943
 20
-166.167
 11
58.9557
 21
-164.77
  0
LINE
  8
0
 10
58.9557
 20
-164.77
 11
62.9816
 21
-163.274
  0
LINE
  8
0
 10
62.9816
 20
-163.274
 11
66.9696
 21
-161.679
  0
LINE
  8
0
 10
66.9696
 20
-161.679
 11
70.9172
 21
-159.987
  0
LINE
  8
0
 10
70.9172
 20
-159.987
 11
74.8221
 21
-158.198
  0
LINE
  8
0
 10
74.8221
 20
-158.198
 11
78.682
 21
-156.314
  0
LINE
  8
0
 10
78.682
 20
-156.314
 11
82.4944
 21
-154.336
  0
LINE
  8
0
 10
82.4944
 20
-154.336
 11
86.2572
 21
-152.265
  0
LINE
  8
0
 10
86.2572
 20
-152.265
 11
89.968
 21
-150.102
  0
LINE
  8
0
 10
89.968
 20
-150.102
 11
93.6246
 21
-147.849
  0
LINE
  8
0
 10
93.6246
 20
-147.849
 11
97.2248
 21
-145.507
  0
LINE
  8
0
 10
97.2248
 20
-145.507
 11
100.766
 21
-143.077
  0
LINE
  8
0
 10
100.766
 20
-143.077
 11
104.247
 21
-140.561
  0
LINE
  8
0
 10
104.247
 20
-140.561
 11
107.666
 21
-137.961
  0
LINE
  8
0
 10
107.666
 20
-137.961
 11
111.019
 21
-135.277
  0
LINE
  8
0
 10
111.019
 20
-135.277
 11
114.305
 21
-132.512
  0
LINE
  8
0
 10
114.305
 20
-132.512
 11
117.523
 21
-129.666
  0
LINE
  8
0
 10
117.523
 20
-129.666
 11
120.67
 21
-126.743
  0
LINE
  8
0
 10
120.67
 20
-126.743
 11
123.744
 21
-123.744
  0
LINE
  8
0
 10
123.744
 20
-123.744
 11
126.743
 21
-120.67
  0
LINE
  8
0
 10
126.743
 20
-120.67
 11
129.666
 21
-117.523
  0
LINE
  8
0
 10
129.666
 20
-117.523
 11
132.512
 21
-114.305
  0
LINE
  8
0
 10
132.512
 20
-114.305
 11
135.277
 21
-111.019
  0
LINE
  8
0
 10
135.277
 20
-111.019
 11
137.961
 21
-107.666
  0
LINE
  8
0
 10
137.961
 20
-107.666
 11
140.561
 21
-104.247
  0
LINE
  8
0
 10
140.561
 20
-104.247
 11
143.077
 21
-100.766
  0
LINE
  8
0
 10
143.077
 20
-100.766
 11
145.507
 21
-97.2248
  0
LINE
  8
0
 10
145.507
 20
-97.2248
 11
147.849
 21
-93.6246
  0
LINE
  8
0
 10
147.849
 20
-93.6246
 11
150.102
 21
-89.968
  0
LINE
  8
0
 10
150.102
 20
-89.968
 11
152.265
 21
-86.2572
  0
LINE
  8
0
 10
152.265
 20
-86.2572
 11
154.336
 21
-82.4944
  0
LINE
  8
0
 10
154.336
 20
-82.4944
 11
156.314
 21
-78.682
  0
LINE
  8
0
 10
156.314
 20
-78.682
 11
158.198
 21
-74.8221
  0
LINE
  8
0
 10
158.198
 20
-74.8221
 11
159.987
 21
-70.9172
  0
LINE
  8
0
 10
159.987
 20
-70.9172
 11
161.679
 21
-66.9696
  0
LINE
  8
0
 10
161.679
 20
-66.9696
 11
163.274
 21
-62.9816
  0
LINE
  8
0
 10
163.274
 20
-62.9816
 11
164.77
 21
-58.9557
  0
LINE
  8
0
 10
164.77
 20
-58.9557
 11
166.167
 21
-54.8943
  0
LINE
  8
0
 10
166.167
 20
-54.8943
 11
167.465
 21
-50.7998
  0
LINE
  8
0
 10
167.465
 20
-50.7998
 11
168.661
 21
-46.6747
  0
LINE
  8
0
 10
168.661
 20
-46.6747
 11
169.755
 21
-42.5215
  0
LINE
  8
0
 10
169.755
 20
-42.5215
 11
170.748
 21
-38.3427
  0
LINE
  8
0
 10
170.748
 20
-38.3427
 11
171.637
 21
-34.1408
  0
LINE
  8
0
 10
171.637
 20
-34.1408
 11
172.424
 21
-29.9183
  0
LINE
  8
0
 10
172.424
 20
-29.9183
 11
173.106
 21
-25.6778
  0
LINE
  8
0
 10
173.106
 20
-25.6778
 11
173.684
 21
-21.4219
  0
LINE
  8
0
 10
173.684
 20
-21.4219
 11
174.157
 21
-17.153
  0
LINE
  8
0
 10
174.157
 20
-17.153
 11
174.526
 21
-12.8738
  0
LINE
  8
0
 10
174.526
 20
-12.8738
 11
174.789
 21
-8.58684
  0
LINE
  8
0
 10
174.789
 20
-8.58684
 11
174.947
 21
-4.29471
  0
LINE
  8
0
 10
174.947
 20
-4.29471
 11
175
 21
0
  0
LINE
  8
0
 10
175
 20
0
 11
174.947
 21
4.29471
  0
LINE
  8
0
 10
174.947
 20
4.29471
 11
174.789
 21
8.58684
  0
LINE
  8
0
 10
174.789
 20
8.58684
 11
174.526
 21
12.8738
  0
LINE
  8
0
 10
174.526
 20
12.8738
 11
174.157
 21
17.153
  0
LINE
  8
0
 10
174.157
 20
17.153
 11
173.684
 21
21.4219
  0
LINE
  8
0
 10
173.684
 20
21.4219
 11
173.106
 21
25.6778
  0
LINE
  8
0
 10
173.106
 20
25.6778
 11
172.424
 21
29.9183
  0
LINE
  8
0
 10
172.424
 20
29.9183
 11
171.637
 21
34.1408
  0
LINE
  8
0
 10
171.637
 20
34.1408
 11
170.748
 21
38.3427
  0
LINE
  8
0
 10
170.748
 20
38.3427
 11
169.755
 21
42.5215
  0
LINE
  8
0
 10
169.755
 20
42.5215
 11
168.661
 21
46.6747
  0
LINE
  8
0
 10
168.661
 20
46.6747
 11
167.465
 21
50.7998
  0
LINE
  8
0
 10
167.465
 20
50.7998
 11
166.167
 21
54.8943
  0
LINE
  8
0
 10
166.167
 20
54.8943
 11
164.77
 21
58.9557
  0
LINE
  8
0
 10
164.77
 20
58.9557
 11
163.274
 21
62.9816
  0
LINE
  8
0
 10
163.274
 20
62.9816
 11
161.679
 21
66.9696
  0
LINE
  8
0
 10
161.679
 20
66.9696
 11
159.987
 21
70.9172
  0
LINE
  8
0
 10
159.987
 20
70.9172
 11
158.198
 21
74.8221
  0
LINE
  8
0
 10
158.198
 20
74.8221
 11
156.314
 21
78.682
  0
LINE
  8
0
 10
156.314
 20
78.682
 11
154.336
 21
82.4944
  0
LINE
  8
0
 10
154.336
 20
82.4944
 11
152.265
 21
86.2572
  0
LINE
  8
0
 10
152.265
 20
86.2572
 11
150.102
 21
89.968
  0
LINE
  8
0
 10
150.102
 20
89.968
 11
147.849
 21
93.6246
  0
LINE
  8
0
 10
147.849
 20
93.6246
 11
145.507
 21
97.2248
  0
LINE
  8
0
 10
145.507
 20
97.2248
 11
143.077
 21
100.766
  0
LINE
  8
0
 10
143.077
 20
100.766
 11
140.561
 21
104.247
  0
LINE
  8
0
 10
140.561
 20
104.247
 11
137.961
 21
107.666
  0
LINE
  8
0
 10
137.961
 20
107.666
 11
135.277
 21
111.019
  0
LINE
  8
0
 10
135.277
 20
111.019
 11
132.512
 21
114.305
  0
LINE
  8
0
 10
132.512
 20
114.305
 11
129.666
 21
117.523
  0
LINE
  8
0
 10
129.666
 20
117.523
 11
126.743
 21
120.67
  0
LINE
  8
0
 10
126.743
 20
120.67
 11
123.744
 21
123.744
  0
LINE
  8
0
 10
123.744
 20
123.744
 11
120.67
 21
126.743
  0
LINE
  8
0
 10
120.67
 20
126.743
 11
117.523
 21
129.666
  0
LINE
  8
0
 10
117.523
 20
129.666
 11
114.305
 21
132.512
  0
LINE
  8
0
 10
114.305
 20
132.512
 11
111.019
 21
135.277
  0
LINE
  8
0
 10
111.019
 20
135.277
 11
107.666
 21
137.961
  0
LINE
  8
0
 10
107.666
 20
137.961
 11
104.247
 21
140.561
  0
LINE
  8
0
 10
104.247
 20
140.561
 11
100.766
 21
143.077
  0
LINE
  8
0
 10
100.766
 20
143.077
 11
97.2248
 21
145.507
  0
LINE
  8
0
 10
97.2248
 20
145.507
 11
93.6246
 21
147.849
  0
LINE
  8
0
 10
93.6246
 20
147.849
 11
89.968
 21
150.102
  0
LINE
  8
0
 10
89.968
 20
150.102
 11
86.2572
 21
152.265
  0
LINE
  8
0
 10
86.2572
 20
152.265
 11
82.4944
 21
154.336
  0
LINE
  8
0
 10
82.4944
 20
154.336
 11
78.682
 21
156.314
  0
LINE
  8
0
 10
78.682
 20
156.314
 11
74.8221
 21
158.198
  0
LINE
  8
0
 10
74.8221
 20
158.198
 11
70.9172
 21
159.987
  0
LINE
  8
0
 10
70.9172
 20
159.987
 11
66.9696
 21
161.679
  0
LINE
  8
0
 10
66.9696
 20
161.679
 11
62.9816
 21
163.274
  0
LINE
  8
0
 10
62.9816
 20
163.274
 11
58.9557
 21
164.77
  0
LINE
  8
0
 10
58.9557
 20
164.77
 11
54.8943
 21
166.167
  0
LINE
  8
0
 10
54.8943
 20
166.167
 11
50.7998
 21
167.465
  0
LINE
  8
0
 10
50.7998
 20
167.465
 11
46.6747
 21
168.661
  0
LINE
  8
0
 10
46.6747
 20
168.661
 11
42.5215
 21
169.755
  0
LINE
  8
0
 10
42.5215
 20
169.755
 11
38.3427
 21
170.748
  0
LINE
  8
0
 10
38.3427
 20
170.748
 11
34.1408
 21
171.637
  0
LINE
  8
0
 10
34.1408
 20
171.637
 11
29.9183
 21
172.424
  0
LINE
  8
0
 10
29.9183
 20
172.424
 11
25.6778
 21
173.106
  0
LINE
  8
0
 10
25.6778
 20
173.106
 11
21.4219
 21
173.684
  0
LINE
  8
0
 10
21.4219
 20
173.684
 11
17.153
 21
174.157
  0
LINE
  8
0
 10
17.153
 20
174.157
 11
12.8738
 21
174.526
  0
LINE
  8
0
 10
12.8738
 20
174.526
 11
8.58684
 21
174.789
  0
LINE
  8
0
 10
8.58684
 20
174.789
 11
4.29471
 21
174.947
  0
LINE
  8
0
 10
4.29471
 20
174.947
 11
0
 21
175
  0
LINE
  8
0
 10
0
 20
175
 11
-4.29471
 21
174.947
  0
LINE
  8
0
 10
-4.29471
 20
174.947
 11
-8.58684
 21
174.789
  0
LINE
  8
0
 10
-8.58684
 20
174.789
 11
-12.8738
 21
174.526
  0
LINE
  8
0
 10
-12.8738
 20
174.526
 11
-17.153
 21
174.157
  0
LINE
  8
0
 10
-17.153
 20
174.157
 11
-21.4219
 21
173.684
  0
LINE
  8
0
 10
-21.4219
 20
173.684
 11
-25.6778
 21
173.106
  0
LINE
  8
0
 10
-25.6778
 20
173.106
 11
-29.9183
 21
172.424
  0
LINE
  8
0
 10
-29.9183
 20
172.424
 11
-34.1408
 21
171.637
  0
LINE
  8
0
 10
-34.1408
 20
171.637
 11
-38.3427
 21
170.748
  0
LINE
  8
0
 10
-38.3427
 20
170.748
 11
-42.5215
 21
169.755
  0
LINE
  8
0
 10
-42.5215
 20
169.755
 11
-46.6747
 21
168.661
  0
LINE
  8
0
 10
-46.6747
 20
168.661
 11
-50.7998
 21
167.465
  0
LINE
  8
0
 10
-50.7998
 20
167.465
 11
-54.8943
 21
166.167
  0
LINE
  8
0
 10
-54.8943
 20
166.167
 11
-58.9557
 21
164.77
  0
LINE
  8
0
 10
-58.9557
 20
164.77
 11
-62.9816
 21
163.274
  0
LINE
  8
0
 10
-62.9816
 20
163.274
 11
-66.9696
 21
161.679
  0
LINE
  8
0
 10
-66.9696
 20
161.679
 11
-70.9172
 21
159.987
  0
LINE
  8
0
 10
-70.9172
 20
159.987
 11
-74.8221
 21
158.198
  0
LINE
  8
0
 10
-74.8221
 20
158.198
 11
-78.682
 21
156.314
  0
LINE
  8
0
 10
-78.682
 20
156.314
 11
-82.4944
 21
154.336
  0
LINE
  8
0
 10
-82.4944
 20
154.336
 11
-86.2572
 21
152.265
  0
LINE
  8
0
 10
-86.2572
 20
152.265
 11
-89.968
 21
150.102
  0
LINE
  8
0
 10
-89.968
 20
150.102
 11
-93.6246
 21
147.849
  0
LINE
  8
0
 10
-93.6246
 20
147.849
 11
-97.2248
 21
145.507
  0
LINE
  8
0
 10
-97.2248
 20
145.507
 11
-100.766
 21
143.077
  0
LINE
  8
0
 10
-100.766
 20
143.077
 11
-104.247
 21
140.561
  0
LINE
  8
0
 10
-104.247
 20
140.561
 11
-107.666
 21
137.961
  0
LINE
  8
0
 10
-107.666
 20
137.961
 11
-111.019
 21
135.277
  0
LINE
  8
0
 10
-111.019
 20
135.277
 11
-114.305
 21
132.512
  0
LINE
  8
0
 10
-114.305
 20
132.512
 11
-117.523
 21
129.666
  0
LINE
  8
0
 10
-117.523
 20
129.666
 11
-120.67
 21
126.743
  0
LINE
  8
0
 10
-120.67
 20
126.743
 11
-123.744
 21
123.744
  0
LINE
  8
0
 10
-123.744
 20
123.744
 11
-126.743
 21
120.67
  0
LINE
  8
0
 10
-126.743
 20
120.67
 11
-129.666
 21
117.523
  0
LINE
  8
0
 10
-129.666
 20
117.523
 11
-132.512
 21
114.305
  0
LINE
  8
0
 10
-132.512
 20
114.305
 11
-135.277
 21
111.019
  0
LINE
  8
0
 10
-135.277
 20
111.019
 11
-137.961
 21
107.666
  0
LINE
  8
0
 10
-137.961
 20
107.666
 11
-140.561
 21
104.247
  0
LINE
  8
0
 10
-140.561
 20
104.247
 11
-143.077
 21
100.766
  0
LINE
  8
0
 10
-143.077
 20
100.766
 11
-145.507
 21
97.2248
  0
LINE
  8
0
 10
-145.507
 20
97.2248
 11
-147.849
 21
93.6246
  0
LINE
  8
0
 10
-147.849
 20
93.6246
 11
-150.102
 21
89.968
  0
LINE
  8
0
 10
-150.102
 20
89.968
 11
-152.265
 21
86.2572
  0
LINE
  8
0
 10
-152.265
 20
86.2572
 11
-154.336
 21
82.4944
  0
LINE
  8
0
 10
-154.336
 20
82.4944
 11
-156.314
 21
78.682
  0
LINE
  8
0
 10
-156.314
 20
78.682
 11
-158.198
 21
74.8221
  0
LINE
  8
0
 10
-158.198
 20
74.8221
 11
-159.987
 21
70.9172
  0
LINE
  8
0
 10
-159.987
 20
70.9172
 11
-161.679
 21
66.9696
  0
LINE
  8
0
 10
-161.679
 20
66.9696
 11
-163.274
 21
62.9816
  0
LINE
  8
0
 10
-163.274
 20
62.9816
 11
-164.77
 21
58.9557
  0
LINE
  8
0
 10
-164.77
 20
58.9557
 11
-166.167
 21
54.8943
  0
LINE
  8
0
 10
-166.167
 20
54.8943
 11
-167.465
 21
50.7998
  0
LINE
  8
0
 10
-167.465
 20
50.7998
 11
-168.661
 21
46.6747
  0
LINE
  8
0
 10
-168.661
 20
46.6747
 11
-169.755
 21
42.5215
  0
LINE
  8
0
 10
-169.755
 20
42.5215
 11
-170.748
 21
38.3427
  0
LINE
  8
0
 10
-170.748
 20
38.3427
 11
-171.637
 21
34.1408
  0
LINE
  8
0
 10
-171.637
 20
34.1408
 11
-172.424
 21
29.9183
  0
LINE
  8
0
 10
-172.424
 20
29.9183
 11
-173.106
 21
25.6778
  0
LINE
  8
0
 10
-173.106
 20
25.6778
 11
-173.684
 21
21.4219
  0
LINE
  8
0
 10
-173.684
 20
21.4219
 11
-174.157
 21
17.153
  0
LINE
  8
0
 10
-174.157
 20
17.153
 11
-174.526
 21
12.8738
  0
LINE
  8
0
 10
-174.526
 20
12.8738
 11
-174.789
 21
8.58684
  0
LINE
  8
0
 10
-174.789
 20
8.58684
 11
-174.947
 21
4.29471
  0
LINE
  8
0
 10
-174.947
 20
4.29471
 11
-175
 21
0
  0
LINE
  8
0
 10
-175
 20
0
 11
-174.947
 21
-4.29471
  0
LINE
  8
0
 10
-174.947
 20
-4.29471
 11
-174.789
 21
-8.58684
  0
LINE
  8
0
 10
-174.789
 20
-8.58684
 11
-174.526
 21
-12.8738
  0
LINE
  8
0
 10
-174.526
 20
-12.8738
 11
-174.157
 21
-17.153
  0
LINE
  8
0
 10
-174.157
 20
-17.153
 11
-173.684
 21
-21.4219
  0
LINE
  8
0
 10
-173.684
 20
-21.4219
 11
-173.106
 21
-25.6778
  0
LINE
  8
0
 10
-173.106
 20
-25.6778
 11
-172.424
 21
-29.9183
  0
LINE
  8
0
 10
-172.424
 20
-29.9183
 11
-171.637
 21
-34.1408
  0
LINE
  8
0
 10
-171.637
 20
-34.1408
 11
-170.748
 21
-38.3427
  0
LINE
  8
0
 10
-170.748
 20
-38.3427
 11
-169.755
 21
-42.5215
  0
LINE
  8
0
 10
-169.755
 20
-42.5215
 11
-168.661
 21
-46.6747
  0
LINE
  8
0
 10
-168.661
 20
-46.6747
 11
-167.465
 21
-50.7998
  0
LINE
  8
0
 10
-167.465
 20
-50.7998
 11
-166.167
 21
-54.8943
  0
LINE
  8
0
 10
-166.167
 20
-54.8943
 11
-164.77
 21
-58.9557
  0
LINE
  8
0
 10
-164.77
 20
-58.9557
 11
-163.274
 21
-62.9816
  0
LINE
  8
0
 10
-163.274
 20
-62.9816
 11
-161.679
 21
-66.9696
  0
LINE
  8
0
 10
-161.679
 20
-66.9696
 11
-159.987
 21
-70.9172
  0
LINE
  8
0
 10
-159.987
 20
-70.9172
 11
-158.198
 21
-74.8221
  0
LINE
  8
0
 10
-158.198
 20
-74.8221
 11
-156.314
 21
-78.682
  0
LINE
  8
0
 10
-156.314
 20
-78.682
 11
-154.336
 21
-82.4944
  0
LINE
  8
0
 10
-154.336
 20
-82.4944
 11
-152.265
 21
-86.2572
  0
LINE
  8
0
 10
-152.265
 20
-86.2572
 11
-150.102
 21
-89.968
  0
LINE
  8
0
 10
-150.102
 20
-89.968
 11
-147.849
 21
-93.6246
  0
LINE
  8
0
 10
-147.849
 20
-93.6246
 11
-145.507
 21
-97.2248
  0
LINE
  8
0
 10
-145.507
 20
-97.2248
 11
-143.077
 21
-100.766
  0
LINE
  8
0
 10
-143.077
 20
-100.766
 11
-140.561
 21
-104.247
  0
LINE
  8
0
 10
-140.561
 20
-104.247
 11
-137.961
 21
-107.666
  0
LINE
  8
0
 10
-137.961
 20
-107.666
 11
-135.277
 21
-111.019
  0
LINE
  8
0
 10
-135.277
 20
-111.019
 11
-132.512
 21
-114.305
  0
LINE
  8
0
 10
-132.512
 20
-114.305
 11
-129.666
 21
-117.523
  0
LINE
  8
0
 10
-129.666
 20
-117.523
 11
-126.743
 21
-120.67
  0
LINE
  8
0
 10
-126.743
 20
-120.67
 11
-123.744
 21
-123.744
  0
LINE
  8
0
 10
-123.744
 20
-123.744
 11
-120.67
 21
-126.743
  0
LINE
  8
0
 10
-120.67
 20
-126.743
 11
-117.523
 21
-129.666
  0
LINE
  8
0
 10
-117.523
 20
-129.666
 11
-114.305
 21
-132.512
  0
LINE
  8
0
 10
-114.305
 20
-132.512
 11
-111.019
 21
-135.277
  0
LINE
  8
0
 10
-111.019
 20
-135.277
 11
-107.666
 21
-137.961
  0
LINE
  8
0
 10
-107.666
 20
-137.961
 11
-104.247
 21
-140.561
  0
LINE
  8
0
 10
-104.247
 20
-140.561
 11
-100.766
 21
-143.077
  0
LINE
  8
0
 10
-100.766
 20
-143.077
 11
-97.2248
 21
-145.507
  0
LINE
  8
0
 10
-97.2248
 20
-145.507
 11
-93.6246
 21
-147.849
  0
LINE
  8
0
 10
-93.6246
 20
-147.849
 11
-89.968
 21
-150.102
  0
LINE
  8
0
 10
-89.968
 20
-150.102
 11
-86.2572
 21
-152.265
  0
LINE
  8
0
 10
-86.2572
 20
-152.265
 11
-82.4944
 21
-154.336
  0
LINE
  8
0
 10
-82.4944
 20
-154.336
 11
-78.682
 21
-156.314
  0
LINE
  8
0
 10
-78.682
 20
-156.314
 11
-74.8221
 21
-158.198
  0
LINE
  8
0
 10
-74.8221
 20
-158.198
 11
-70.9172
 21
-159.987
  0
LINE
  8
0
 10
-70.9172
 20
-159.987
 11
-66.9696
 21
-161.679
  0
LINE
  8
0
 10
-66.9696
 20
-161.679
 11
-62.9816
 21
-163.274
  0
LINE
  8
0
 10
-62.9816
 20
-163.274
 11
-58.9557
 21
-164.77
  0
LINE
  8
0
 10
-58.9557
 20
-164.77
 11
-54.8943
 21
-166.167
  0
LINE
  8
0
 10
-54.8943
 20
-166.167
 11
-50.7998
 21
-167.465
  0
LINE
  8
0
 10
-50.7998
 20
-167.465
 11
-46.6747
 21
-168.661
  0
LINE
  8
0
 10
-46.6747
 20
-168.661
 11
-42.5215
 21
-169.755
  0
LINE
  8
0
 10
-42.5215
 20
-169.755
 11
-38.3427
 21
-170.748
  0
LINE
  8
0
 10
-38.3427
 20
-170.748
 11
-34.1408
 21
-171.637
  0
LINE
  8
0
 10
-34.1408
 20
-171.637
 11
-29.9183
 21
-172.424
  0
LINE
  8
0
 10
-29.9183
 20
-172.424
 11
-25.6778
 21
-173.106
  0
LINE
  8
0
 10
-25.6778
 20
-173.106
 11
-21.4219
 21
-173.684
  0
LINE
  8
0
 10
-21.4219
 20
-173.684
 11
-17.153
 21
-174.157
  0
LINE
  8
0
 10
-17.153
 20
-174.157
 11
-12.8738
 21
-174.526
  0
LINE
  8
0
 10
-12.8738
 20
-174.526
 11
-8.58684
 21
-174.789
  0
LINE
  8
0
 10
-8.58684
 20
-174.789
 11
-4.29471
 21
-174.947
  0
LINE
  8
0
 10
-4.29471
 20
-174.947
 11
0
 21
-175
  0
LINE
  8
0
 10
0
 20
-175
 11
4.29471
 21
-174.947
  0
ENDSEC
  0
SECTION
  2
OBJECTS
  0
DICTIONARY
  0
ENDSEC
  0
EOF
