  0
SECTION
  2
BLOCKS
  0
ENDSEC
  0
SECTION
  2
ENTITIES
  0
LINE
  8
0
 10
241.044
 20
92.5
 11
200.629
 21
162.5
  0
LINE
  8
0
 10
200.629
 20
162.5
 11
-200.629
 21
162.5
  0
LINE
  8
0
 10
-200.629
 20
162.5
 11
-241.044
 21
92.5
  0
LINE
  8
0
 10
-241.044
 20
92.5
 11
-40.4145
 21
-255
  0
LINE
  8
0
 10
-40.4145
 20
-255
 11
40.4145
 21
-255
  0
LINE
  8
0
 10
40.4145
 20
-255
 11
241.044
 21
92.5
  0
LINE
  8
0
 10
78.9266
 20
149.76
 11
78.468
 21
149.932
  0
LINE
  8
0
 10
78.468
 20
149.932
 11
78.0518
 21
150.191
  0
LINE
  8
0
 10
78.0518
 20
150.191
 11
77.6941
 21
150.526
  0
LINE
  8
0
 10
77.6941
 20
150.526
 11
77.4086
 21
150.924
  0
LINE
  8
0
 10
77.4086
 20
150.924
 11
77.2064
 21
151.371
  0
LINE
  8
0
 10
77.2064
 20
151.371
 11
77.0951
 21
151.848
  0
LINE
  8
0
 10
77.0951
 20
151.848
 11
77.079
 21
152.338
  0
LINE
  8
0
 10
77.079
 20
152.338
 11
77.1589
 21
152.821
  0
LINE
  8
0
 10
77.1589
 20
152.821
 11
77.3315
 21
153.28
  0
LINE
  8
0
 10
77.3315
 20
153.28
 11
77.5903
 21
153.696
  0
LINE
  8
0
 10
77.5903
 20
153.696
 11
77.9253
 21
154.054
  0
LINE
  8
0
 10
77.9253
 20
154.054
 11
78.3237
 21
154.339
  0
LINE
  8
0
 10
78.3237
 20
154.339
 11
78.7701
 21
154.542
  0
LINE
  8
0
 10
78.7701
 20
154.542
 11
79.2474
 21
154.653
  0
LINE
  8
0
 10
79.2474
 20
154.653
 11
79.7372
 21
154.669
  0
LINE
  8
0
 10
79.7372
 20
154.669
 11
80.2207
 21
154.589
  0
LINE
  8
0
 10
80.2207
 20
154.589
 11
80.6794
 21
154.417
  0
LINE
  8
0
 10
80.6794
 20
154.417
 11
81.0956
 21
154.158
  0
LINE
  8
0
 10
81.0956
 20
154.158
 11
81.4533
 21
153.823
  0
LINE
  8
0
 10
81.4533
 20
153.823
 11
81.7387
 21
153.424
  0
LINE
  8
0
 10
81.7387
 20
153.424
 11
81.941
 21
152.978
  0
LINE
  8
0
 10
81.941
 20
152.978
 11
82.0523
 21
152.501
  0
LINE
  8
0
 10
82.0523
 20
152.501
 11
82.0683
 21
152.011
  0
LINE
  8
0
 10
82.0683
 20
152.011
 11
81.9885
 21
151.527
  0
LINE
  8
0
 10
81.9885
 20
151.527
 11
81.8159
 21
151.069
  0
LINE
  8
0
 10
81.8159
 20
151.069
 11
81.5571
 21
150.652
  0
LINE
  8
0
 10
81.5571
 20
150.652
 11
81.222
 21
150.295
  0
LINE
  8
0
 10
81.222
 20
150.295
 11
80.8237
 21
150.009
  0
LINE
  8
0
 10
80.8237
 20
150.009
 11
80.3773
 21
149.807
  0
LINE
  8
0
 10
80.3773
 20
149.807
 11
79.9
 21
149.696
  0
LINE
  8
0
 10
79.9
 20
149.696
 11
79.4102
 21
149.68
  0
LINE
  8
0
 10
79.4102
 20
149.68
 11
78.9266
 21
149.76
  0
LINE
  8
0
 10
-79.9
 20
149.696
 11
-80.3773
 21
149.807
  0
LINE
  8
0
 10
-80.3773
 20
149.807
 11
-80.8237
 21
150.009
  0
LINE
  8
0
 10
-80.8237
 20
150.009
 11
-81.222
 21
150.295
  0
LINE
  8
0
 10
-81.222
 20
150.295
 11
-81.5571
 21
150.652
  0
LINE
  8
0
 10
-81.5571
 20
150.652
 11
-81.8159
 21
151.069
  0
LINE
  8
0
 10
-81.8159
 20
151.069
 11
-81.9885
 21
151.527
  0
LINE
  8
0
 10
-81.9885
 20
151.527
 11
-82.0683
 21
152.011
  0
LINE
  8
0
 10
-82.0683
 20
152.011
 11
-82.0523
 21
152.501
  0
LINE
  8
0
 10
-82.0523
 20
152.501
 11
-81.941
 21
152.978
  0
LINE
  8
0
 10
-81.941
 20
152.978
 11
-81.7387
 21
153.424
  0
LINE
  8
0
 10
-81.7387
 20
153.424
 11
-81.4533
 21
153.823
  0
LINE
  8
0
 10
-81.4533
 20
153.823
 11
-81.0956
 21
154.158
  0
LINE
  8
0
 10
-81.0956
 20
154.158
 11
-80.6794
 21
154.417
  0
LINE
  8
0
 10
-80.6794
 20
154.417
 11
-80.2207
 21
154.589
  0
LINE
  8
0
 10
-80.2207
 20
154.589
 11
-79.7372
 21
154.669
  0
LINE
  8
0
 10
-79.7372
 20
154.669
 11
-79.2474
 21
154.653
  0
LINE
  8
0
 10
-79.2474
 20
154.653
 11
-78.7701
 21
154.542
  0
LINE
  8
0
 10
-78.7701
 20
154.542
 11
-78.3237
 21
154.339
  0
LINE
  8
0
 10
-78.3237
 20
154.339
 11
-77.9253
 21
154.054
  0
LINE
  8
0
 10
-77.9253
 20
154.054
 11
-77.5903
 21
153.696
  0
LINE
  8
0
 10
-77.5903
 20
153.696
 11
-77.3315
 21
153.28
  0
LINE
  8
0
 10
-77.3315
 20
153.28
 11
-77.1589
 21
152.821
  0
LINE
  8
0
 10
-77.1589
 20
152.821
 11
-77.079
 21
152.338
  0
LINE
  8
0
 10
-77.079
 20
152.338
 11
-77.0951
 21
151.848
  0
LINE
  8
0
 10
-77.0951
 20
151.848
 11
-77.2064
 21
151.371
  0
LINE
  8
0
 10
-77.2064
 20
151.371
 11
-77.4086
 21
150.924
  0
LINE
  8
0
 10
-77.4086
 20
150.924
 11
-77.6941
 21
150.526
  0
LINE
  8
0
 10
-77.6941
 20
150.526
 11
-78.0518
 21
150.191
  0
LINE
  8
0
 10
-78.0518
 20
150.191
 11
-78.468
 21
149.932
  0
LINE
  8
0
 10
-78.468
 20
149.932
 11
-78.9266
 21
149.76
  0
LINE
  8
0
 10
-78.9266
 20
149.76
 11
-79.4102
 21
149.68
  0
LINE
  8
0
 10
-79.4102
 20
149.68
 11
-79.9
 21
149.696
  0
LINE
  8
0
 10
152.852
 20
149.717
 11
152.394
 21
149.889
  0
LINE
  8
0
 10
152.394
 20
149.889
 11
151.977
 21
150.148
  0
LINE
  8
0
 10
151.977
 20
150.148
 11
151.62
 21
150.483
  0
LINE
  8
0
 10
151.62
 20
150.483
 11
151.334
 21
150.881
  0
LINE
  8
0
 10
151.334
 20
150.881
 11
151.132
 21
151.328
  0
LINE
  8
0
 10
151.132
 20
151.328
 11
151.021
 21
151.805
  0
LINE
  8
0
 10
151.021
 20
151.805
 11
151.005
 21
152.295
  0
LINE
  8
0
 10
151.005
 20
152.295
 11
151.084
 21
152.778
  0
LINE
  8
0
 10
151.084
 20
152.778
 11
151.257
 21
153.237
  0
LINE
  8
0
 10
151.257
 20
153.237
 11
151.516
 21
153.653
  0
LINE
  8
0
 10
151.516
 20
153.653
 11
151.851
 21
154.011
  0
LINE
  8
0
 10
151.851
 20
154.011
 11
152.249
 21
154.296
  0
LINE
  8
0
 10
152.249
 20
154.296
 11
152.696
 21
154.499
  0
LINE
  8
0
 10
152.696
 20
154.499
 11
153.173
 21
154.61
  0
LINE
  8
0
 10
153.173
 20
154.61
 11
153.663
 21
154.626
  0
LINE
  8
0
 10
153.663
 20
154.626
 11
154.146
 21
154.546
  0
LINE
  8
0
 10
154.146
 20
154.546
 11
154.605
 21
154.374
  0
LINE
  8
0
 10
154.605
 20
154.374
 11
155.021
 21
154.115
  0
LINE
  8
0
 10
155.021
 20
154.115
 11
155.379
 21
153.78
  0
LINE
  8
0
 10
155.379
 20
153.78
 11
155.664
 21
153.381
  0
LINE
  8
0
 10
155.664
 20
153.381
 11
155.867
 21
152.935
  0
LINE
  8
0
 10
155.867
 20
152.935
 11
155.978
 21
152.458
  0
LINE
  8
0
 10
155.978
 20
152.458
 11
155.994
 21
151.968
  0
LINE
  8
0
 10
155.994
 20
151.968
 11
155.914
 21
151.484
  0
LINE
  8
0
 10
155.914
 20
151.484
 11
155.741
 21
151.026
  0
LINE
  8
0
 10
155.741
 20
151.026
 11
155.483
 21
150.609
  0
LINE
  8
0
 10
155.483
 20
150.609
 11
155.148
 21
150.252
  0
LINE
  8
0
 10
155.148
 20
150.252
 11
154.749
 21
149.966
  0
LINE
  8
0
 10
154.749
 20
149.966
 11
154.303
 21
149.764
  0
LINE
  8
0
 10
154.303
 20
149.764
 11
153.826
 21
149.653
  0
LINE
  8
0
 10
153.826
 20
149.653
 11
153.336
 21
149.637
  0
LINE
  8
0
 10
153.336
 20
149.637
 11
152.852
 21
149.717
  0
LINE
  8
0
 10
-153.826
 20
149.653
 11
-154.303
 21
149.764
  0
LINE
  8
0
 10
-154.303
 20
149.764
 11
-154.749
 21
149.966
  0
LINE
  8
0
 10
-154.749
 20
149.966
 11
-155.148
 21
150.252
  0
LINE
  8
0
 10
-155.148
 20
150.252
 11
-155.483
 21
150.609
  0
LINE
  8
0
 10
-155.483
 20
150.609
 11
-155.741
 21
151.026
  0
LINE
  8
0
 10
-155.741
 20
151.026
 11
-155.914
 21
151.484
  0
LINE
  8
0
 10
-155.914
 20
151.484
 11
-155.994
 21
151.968
  0
LINE
  8
0
 10
-155.994
 20
151.968
 11
-155.978
 21
152.458
  0
LINE
  8
0
 10
-155.978
 20
152.458
 11
-155.867
 21
152.935
  0
LINE
  8
0
 10
-155.867
 20
152.935
 11
-155.664
 21
153.381
  0
LINE
  8
0
 10
-155.664
 20
153.381
 11
-155.379
 21
153.78
  0
LINE
  8
0
 10
-155.379
 20
153.78
 11
-155.021
 21
154.115
  0
LINE
  8
0
 10
-155.021
 20
154.115
 11
-154.605
 21
154.374
  0
LINE
  8
0
 10
-154.605
 20
154.374
 11
-154.146
 21
154.546
  0
LINE
  8
0
 10
-154.146
 20
154.546
 11
-153.663
 21
154.626
  0
LINE
  8
0
 10
-153.663
 20
154.626
 11
-153.173
 21
154.61
  0
LINE
  8
0
 10
-153.173
 20
154.61
 11
-152.696
 21
154.499
  0
LINE
  8
0
 10
-152.696
 20
154.499
 11
-152.249
 21
154.296
  0
LINE
  8
0
 10
-152.249
 20
154.296
 11
-151.851
 21
154.011
  0
LINE
  8
0
 10
-151.851
 20
154.011
 11
-151.516
 21
153.653
  0
LINE
  8
0
 10
-151.516
 20
153.653
 11
-151.257
 21
153.237
  0
LINE
  8
0
 10
-151.257
 20
153.237
 11
-151.084
 21
152.778
  0
LINE
  8
0
 10
-151.084
 20
152.778
 11
-151.005
 21
152.295
  0
LINE
  8
0
 10
-151.005
 20
152.295
 11
-151.021
 21
151.805
  0
LINE
  8
0
 10
-151.021
 20
151.805
 11
-151.132
 21
151.328
  0
LINE
  8
0
 10
-151.132
 20
151.328
 11
-151.334
 21
150.881
  0
LINE
  8
0
 10
-151.334
 20
150.881
 11
-151.62
 21
150.483
  0
LINE
  8
0
 10
-151.62
 20
150.483
 11
-151.977
 21
150.148
  0
LINE
  8
0
 10
-151.977
 20
150.148
 11
-152.394
 21
149.889
  0
LINE
  8
0
 10
-152.394
 20
149.889
 11
-152.852
 21
149.717
  0
LINE
  8
0
 10
-152.852
 20
149.717
 11
-153.336
 21
149.637
  0
LINE
  8
0
 10
-153.336
 20
149.637
 11
-153.826
 21
149.653
  0
LINE
  8
0
 10
-197.503
 20
146.002
 11
-197.98
 21
146.113
  0
LINE
  8
0
 10
-197.98
 20
146.113
 11
-198.426
 21
146.316
  0
LINE
  8
0
 10
-198.426
 20
146.316
 11
-198.825
 21
146.601
  0
LINE
  8
0
 10
-198.825
 20
146.601
 11
-199.16
 21
146.959
  0
LINE
  8
0
 10
-199.16
 20
146.959
 11
-199.418
 21
147.375
  0
LINE
  8
0
 10
-199.418
 20
147.375
 11
-199.591
 21
147.834
  0
LINE
  8
0
 10
-199.591
 20
147.834
 11
-199.671
 21
148.317
  0
LINE
  8
0
 10
-199.671
 20
148.317
 11
-199.655
 21
148.807
  0
LINE
  8
0
 10
-199.655
 20
148.807
 11
-199.544
 21
149.284
  0
LINE
  8
0
 10
-199.544
 20
149.284
 11
-199.341
 21
149.731
  0
LINE
  8
0
 10
-199.341
 20
149.731
 11
-199.056
 21
150.129
  0
LINE
  8
0
 10
-199.056
 20
150.129
 11
-198.698
 21
150.464
  0
LINE
  8
0
 10
-198.698
 20
150.464
 11
-198.282
 21
150.723
  0
LINE
  8
0
 10
-198.282
 20
150.723
 11
-197.823
 21
150.896
  0
LINE
  8
0
 10
-197.823
 20
150.896
 11
-197.34
 21
150.975
  0
LINE
  8
0
 10
-197.34
 20
150.975
 11
-196.85
 21
150.959
  0
LINE
  8
0
 10
-196.85
 20
150.959
 11
-196.373
 21
150.848
  0
LINE
  8
0
 10
-196.373
 20
150.848
 11
-195.926
 21
150.646
  0
LINE
  8
0
 10
-195.926
 20
150.646
 11
-195.528
 21
150.36
  0
LINE
  8
0
 10
-195.528
 20
150.36
 11
-195.193
 21
150.003
  0
LINE
  8
0
 10
-195.193
 20
150.003
 11
-194.934
 21
149.586
  0
LINE
  8
0
 10
-194.934
 20
149.586
 11
-194.761
 21
149.128
  0
LINE
  8
0
 10
-194.761
 20
149.128
 11
-194.682
 21
148.644
  0
LINE
  8
0
 10
-194.682
 20
148.644
 11
-194.698
 21
148.154
  0
LINE
  8
0
 10
-194.698
 20
148.154
 11
-194.809
 21
147.677
  0
LINE
  8
0
 10
-194.809
 20
147.677
 11
-195.011
 21
147.231
  0
LINE
  8
0
 10
-195.011
 20
147.231
 11
-195.297
 21
146.832
  0
LINE
  8
0
 10
-195.297
 20
146.832
 11
-195.654
 21
146.497
  0
LINE
  8
0
 10
-195.654
 20
146.497
 11
-196.07
 21
146.239
  0
LINE
  8
0
 10
-196.07
 20
146.239
 11
-196.529
 21
146.066
  0
LINE
  8
0
 10
-196.529
 20
146.066
 11
-197.013
 21
145.986
  0
LINE
  8
0
 10
-197.013
 20
145.986
 11
-197.503
 21
146.002
  0
LINE
  8
0
 10
196.529
 20
146.066
 11
196.071
 21
146.239
  0
LINE
  8
0
 10
196.071
 20
146.239
 11
195.654
 21
146.497
  0
LINE
  8
0
 10
195.654
 20
146.497
 11
195.297
 21
146.832
  0
LINE
  8
0
 10
195.297
 20
146.832
 11
195.011
 21
147.231
  0
LINE
  8
0
 10
195.011
 20
147.231
 11
194.809
 21
147.677
  0
LINE
  8
0
 10
194.809
 20
147.677
 11
194.698
 21
148.154
  0
LINE
  8
0
 10
194.698
 20
148.154
 11
194.682
 21
148.644
  0
LINE
  8
0
 10
194.682
 20
148.644
 11
194.761
 21
149.128
  0
LINE
  8
0
 10
194.761
 20
149.128
 11
194.934
 21
149.586
  0
LINE
  8
0
 10
194.934
 20
149.586
 11
195.193
 21
150.003
  0
LINE
  8
0
 10
195.193
 20
150.003
 11
195.528
 21
150.36
  0
LINE
  8
0
 10
195.528
 20
150.36
 11
195.926
 21
150.646
  0
LINE
  8
0
 10
195.926
 20
150.646
 11
196.373
 21
150.848
  0
LINE
  8
0
 10
196.373
 20
150.848
 11
196.85
 21
150.959
  0
LINE
  8
0
 10
196.85
 20
150.959
 11
197.34
 21
150.975
  0
LINE
  8
0
 10
197.34
 20
150.975
 11
197.823
 21
150.896
  0
LINE
  8
0
 10
197.823
 20
150.896
 11
198.282
 21
150.723
  0
LINE
  8
0
 10
198.282
 20
150.723
 11
198.698
 21
150.464
  0
LINE
  8
0
 10
198.698
 20
150.464
 11
199.056
 21
150.129
  0
LINE
  8
0
 10
199.056
 20
150.129
 11
199.341
 21
149.731
  0
LINE
  8
0
 10
199.341
 20
149.731
 11
199.544
 21
149.284
  0
LINE
  8
0
 10
199.544
 20
149.284
 11
199.655
 21
148.807
  0
LINE
  8
0
 10
199.655
 20
148.807
 11
199.671
 21
148.317
  0
LINE
  8
0
 10
199.671
 20
148.317
 11
199.591
 21
147.834
  0
LINE
  8
0
 10
199.591
 20
147.834
 11
199.418
 21
147.375
  0
LINE
  8
0
 10
199.418
 20
147.375
 11
199.16
 21
146.959
  0
LINE
  8
0
 10
199.16
 20
146.959
 11
198.825
 21
146.601
  0
LINE
  8
0
 10
198.825
 20
146.601
 11
198.426
 21
146.316
  0
LINE
  8
0
 10
198.426
 20
146.316
 11
197.98
 21
146.113
  0
LINE
  8
0
 10
197.98
 20
146.113
 11
197.503
 21
146.002
  0
LINE
  8
0
 10
197.503
 20
146.002
 11
197.013
 21
145.986
  0
LINE
  8
0
 10
197.013
 20
145.986
 11
196.529
 21
146.066
  0
LINE
  8
0
 10
179.209
 20
136.066
 11
178.75
 21
136.239
  0
LINE
  8
0
 10
178.75
 20
136.239
 11
178.334
 21
136.497
  0
LINE
  8
0
 10
178.334
 20
136.497
 11
177.976
 21
136.832
  0
LINE
  8
0
 10
177.976
 20
136.832
 11
177.691
 21
137.231
  0
LINE
  8
0
 10
177.691
 20
137.231
 11
177.488
 21
137.677
  0
LINE
  8
0
 10
177.488
 20
137.677
 11
177.377
 21
138.154
  0
LINE
  8
0
 10
177.377
 20
138.154
 11
177.361
 21
138.644
  0
LINE
  8
0
 10
177.361
 20
138.644
 11
177.441
 21
139.128
  0
LINE
  8
0
 10
177.441
 20
139.128
 11
177.614
 21
139.586
  0
LINE
  8
0
 10
177.614
 20
139.586
 11
177.872
 21
140.003
  0
LINE
  8
0
 10
177.872
 20
140.003
 11
178.207
 21
140.36
  0
LINE
  8
0
 10
178.207
 20
140.36
 11
178.606
 21
140.646
  0
LINE
  8
0
 10
178.606
 20
140.646
 11
179.052
 21
140.848
  0
LINE
  8
0
 10
179.052
 20
140.848
 11
179.529
 21
140.959
  0
LINE
  8
0
 10
179.529
 20
140.959
 11
180.019
 21
140.975
  0
LINE
  8
0
 10
180.019
 20
140.975
 11
180.503
 21
140.896
  0
LINE
  8
0
 10
180.503
 20
140.896
 11
180.961
 21
140.723
  0
LINE
  8
0
 10
180.961
 20
140.723
 11
181.378
 21
140.464
  0
LINE
  8
0
 10
181.378
 20
140.464
 11
181.735
 21
140.129
  0
LINE
  8
0
 10
181.735
 20
140.129
 11
182.021
 21
139.731
  0
LINE
  8
0
 10
182.021
 20
139.731
 11
182.223
 21
139.284
  0
LINE
  8
0
 10
182.223
 20
139.284
 11
182.334
 21
138.807
  0
LINE
  8
0
 10
182.334
 20
138.807
 11
182.35
 21
138.317
  0
LINE
  8
0
 10
182.35
 20
138.317
 11
182.271
 21
137.834
  0
LINE
  8
0
 10
182.271
 20
137.834
 11
182.098
 21
137.375
  0
LINE
  8
0
 10
182.098
 20
137.375
 11
181.839
 21
136.959
  0
LINE
  8
0
 10
181.839
 20
136.959
 11
181.504
 21
136.601
  0
LINE
  8
0
 10
181.504
 20
136.601
 11
181.106
 21
136.316
  0
LINE
  8
0
 10
181.106
 20
136.316
 11
180.659
 21
136.113
  0
LINE
  8
0
 10
180.659
 20
136.113
 11
180.182
 21
136.002
  0
LINE
  8
0
 10
180.182
 20
136.002
 11
179.692
 21
135.986
  0
LINE
  8
0
 10
179.692
 20
135.986
 11
179.209
 21
136.066
  0
LINE
  8
0
 10
-180.182
 20
136.002
 11
-180.659
 21
136.113
  0
LINE
  8
0
 10
-180.659
 20
136.113
 11
-181.106
 21
136.316
  0
LINE
  8
0
 10
-181.106
 20
136.316
 11
-181.504
 21
136.601
  0
LINE
  8
0
 10
-181.504
 20
136.601
 11
-181.839
 21
136.959
  0
LINE
  8
0
 10
-181.839
 20
136.959
 11
-182.098
 21
137.375
  0
LINE
  8
0
 10
-182.098
 20
137.375
 11
-182.271
 21
137.834
  0
LINE
  8
0
 10
-182.271
 20
137.834
 11
-182.35
 21
138.317
  0
LINE
  8
0
 10
-182.35
 20
138.317
 11
-182.334
 21
138.807
  0
LINE
  8
0
 10
-182.334
 20
138.807
 11
-182.223
 21
139.284
  0
LINE
  8
0
 10
-182.223
 20
139.284
 11
-182.021
 21
139.731
  0
LINE
  8
0
 10
-182.021
 20
139.731
 11
-181.735
 21
140.129
  0
LINE
  8
0
 10
-181.735
 20
140.129
 11
-181.378
 21
140.464
  0
LINE
  8
0
 10
-181.378
 20
140.464
 11
-180.961
 21
140.723
  0
LINE
  8
0
 10
-180.961
 20
140.723
 11
-180.503
 21
140.896
  0
LINE
  8
0
 10
-180.503
 20
140.896
 11
-180.019
 21
140.975
  0
LINE
  8
0
 10
-180.019
 20
140.975
 11
-179.529
 21
140.959
  0
LINE
  8
0
 10
-179.529
 20
140.959
 11
-179.052
 21
140.848
  0
LINE
  8
0
 10
-179.052
 20
140.848
 11
-178.606
 21
140.646
  0
LINE
  8
0
 10
-178.606
 20
140.646
 11
-178.207
 21
140.36
  0
LINE
  8
0
 10
-178.207
 20
140.36
 11
-177.872
 21
140.003
  0
LINE
  8
0
 10
-177.872
 20
140.003
 11
-177.614
 21
139.586
  0
LINE
  8
0
 10
-177.614
 20
139.586
 11
-177.441
 21
139.128
  0
LINE
  8
0
 10
-177.441
 20
139.128
 11
-177.361
 21
138.644
  0
LINE
  8
0
 10
-177.361
 20
138.644
 11
-177.377
 21
138.154
  0
LINE
  8
0
 10
-177.377
 20
138.154
 11
-177.488
 21
137.677
  0
LINE
  8
0
 10
-177.488
 20
137.677
 11
-177.691
 21
137.231
  0
LINE
  8
0
 10
-177.691
 20
137.231
 11
-177.976
 21
136.832
  0
LINE
  8
0
 10
-177.976
 20
136.832
 11
-178.334
 21
136.497
  0
LINE
  8
0
 10
-178.334
 20
136.497
 11
-178.75
 21
136.239
  0
LINE
  8
0
 10
-178.75
 20
136.239
 11
-179.209
 21
136.066
  0
LINE
  8
0
 10
-179.209
 20
136.066
 11
-179.692
 21
135.986
  0
LINE
  8
0
 10
-179.692
 20
135.986
 11
-180.182
 21
136.002
  0
LINE
  8
0
 10
206.529
 20
128.745
 11
206.071
 21
128.918
  0
LINE
  8
0
 10
206.071
 20
128.918
 11
205.654
 21
129.177
  0
LINE
  8
0
 10
205.654
 20
129.177
 11
205.297
 21
129.512
  0
LINE
  8
0
 10
205.297
 20
129.512
 11
205.011
 21
129.91
  0
LINE
  8
0
 10
205.011
 20
129.91
 11
204.809
 21
130.357
  0
LINE
  8
0
 10
204.809
 20
130.357
 11
204.698
 21
130.834
  0
LINE
  8
0
 10
204.698
 20
130.834
 11
204.682
 21
131.324
  0
LINE
  8
0
 10
204.682
 20
131.324
 11
204.761
 21
131.807
  0
LINE
  8
0
 10
204.761
 20
131.807
 11
204.934
 21
132.266
  0
LINE
  8
0
 10
204.934
 20
132.266
 11
205.193
 21
132.682
  0
LINE
  8
0
 10
205.193
 20
132.682
 11
205.528
 21
133.04
  0
LINE
  8
0
 10
205.528
 20
133.04
 11
205.926
 21
133.325
  0
LINE
  8
0
 10
205.926
 20
133.325
 11
206.373
 21
133.528
  0
LINE
  8
0
 10
206.373
 20
133.528
 11
206.85
 21
133.639
  0
LINE
  8
0
 10
206.85
 20
133.639
 11
207.34
 21
133.655
  0
LINE
  8
0
 10
207.34
 20
133.655
 11
207.823
 21
133.575
  0
LINE
  8
0
 10
207.823
 20
133.575
 11
208.282
 21
133.402
  0
LINE
  8
0
 10
208.282
 20
133.402
 11
208.698
 21
133.144
  0
LINE
  8
0
 10
208.698
 20
133.144
 11
209.056
 21
132.809
  0
LINE
  8
0
 10
209.056
 20
132.809
 11
209.341
 21
132.41
  0
LINE
  8
0
 10
209.341
 20
132.41
 11
209.544
 21
131.964
  0
LINE
  8
0
 10
209.544
 20
131.964
 11
209.655
 21
131.487
  0
LINE
  8
0
 10
209.655
 20
131.487
 11
209.671
 21
130.997
  0
LINE
  8
0
 10
209.671
 20
130.997
 11
209.591
 21
130.513
  0
LINE
  8
0
 10
209.591
 20
130.513
 11
209.418
 21
130.055
  0
LINE
  8
0
 10
209.418
 20
130.055
 11
209.16
 21
129.638
  0
LINE
  8
0
 10
209.16
 20
129.638
 11
208.825
 21
129.281
  0
LINE
  8
0
 10
208.825
 20
129.281
 11
208.426
 21
128.995
  0
LINE
  8
0
 10
208.426
 20
128.995
 11
207.98
 21
128.793
  0
LINE
  8
0
 10
207.98
 20
128.793
 11
207.503
 21
128.682
  0
LINE
  8
0
 10
207.503
 20
128.682
 11
207.013
 21
128.666
  0
LINE
  8
0
 10
207.013
 20
128.666
 11
206.529
 21
128.745
  0
LINE
  8
0
 10
-207.503
 20
128.682
 11
-207.98
 21
128.793
  0
LINE
  8
0
 10
-207.98
 20
128.793
 11
-208.426
 21
128.995
  0
LINE
  8
0
 10
-208.426
 20
128.995
 11
-208.825
 21
129.281
  0
LINE
  8
0
 10
-208.825
 20
129.281
 11
-209.16
 21
129.638
  0
LINE
  8
0
 10
-209.16
 20
129.638
 11
-209.418
 21
130.055
  0
LINE
  8
0
 10
-209.418
 20
130.055
 11
-209.591
 21
130.513
  0
LINE
  8
0
 10
-209.591
 20
130.513
 11
-209.671
 21
130.997
  0
LINE
  8
0
 10
-209.671
 20
130.997
 11
-209.655
 21
131.487
  0
LINE
  8
0
 10
-209.655
 20
131.487
 11
-209.544
 21
131.964
  0
LINE
  8
0
 10
-209.544
 20
131.964
 11
-209.341
 21
132.41
  0
LINE
  8
0
 10
-209.341
 20
132.41
 11
-209.056
 21
132.809
  0
LINE
  8
0
 10
-209.056
 20
132.809
 11
-208.698
 21
133.144
  0
LINE
  8
0
 10
-208.698
 20
133.144
 11
-208.282
 21
133.402
  0
LINE
  8
0
 10
-208.282
 20
133.402
 11
-207.823
 21
133.575
  0
LINE
  8
0
 10
-207.823
 20
133.575
 11
-207.34
 21
133.655
  0
LINE
  8
0
 10
-207.34
 20
133.655
 11
-206.85
 21
133.639
  0
LINE
  8
0
 10
-206.85
 20
133.639
 11
-206.373
 21
133.528
  0
LINE
  8
0
 10
-206.373
 20
133.528
 11
-205.926
 21
133.325
  0
LINE
  8
0
 10
-205.926
 20
133.325
 11
-205.528
 21
133.04
  0
LINE
  8
0
 10
-205.528
 20
133.04
 11
-205.193
 21
132.682
  0
LINE
  8
0
 10
-205.193
 20
132.682
 11
-204.934
 21
132.266
  0
LINE
  8
0
 10
-204.934
 20
132.266
 11
-204.761
 21
131.807
  0
LINE
  8
0
 10
-204.761
 20
131.807
 11
-204.682
 21
131.324
  0
LINE
  8
0
 10
-204.682
 20
131.324
 11
-204.698
 21
130.834
  0
LINE
  8
0
 10
-204.698
 20
130.834
 11
-204.809
 21
130.357
  0
LINE
  8
0
 10
-204.809
 20
130.357
 11
-205.011
 21
129.91
  0
LINE
  8
0
 10
-205.011
 20
129.91
 11
-205.297
 21
129.512
  0
LINE
  8
0
 10
-205.297
 20
129.512
 11
-205.654
 21
129.177
  0
LINE
  8
0
 10
-205.654
 20
129.177
 11
-206.07
 21
128.918
  0
LINE
  8
0
 10
-206.07
 20
128.918
 11
-206.529
 21
128.745
  0
LINE
  8
0
 10
-206.529
 20
128.745
 11
-207.013
 21
128.666
  0
LINE
  8
0
 10
-207.013
 20
128.666
 11
-207.503
 21
128.682
  0
LINE
  8
0
 10
-208.418
 20
103.01
 11
-193.418
 21
128.99
  0
LINE
  8
0
 10
-193.418
 20
128.99
 11
-176.097
 21
118.99
  0
LINE
  8
0
 10
-176.097
 20
118.99
 11
-191.097
 21
93.0096
  0
LINE
  8
0
 10
-191.097
 20
93.0096
 11
-208.418
 21
103.01
  0
LINE
  8
0
 10
176.097
 20
118.99
 11
193.418
 21
128.99
  0
LINE
  8
0
 10
193.418
 20
128.99
 11
208.418
 21
103.01
  0
LINE
  8
0
 10
208.418
 20
103.01
 11
191.097
 21
93.0096
  0
LINE
  8
0
 10
191.097
 20
93.0096
 11
176.097
 21
118.99
  0
LINE
  8
0
 10
-154.136
 20
121.498
 11
-154.518
 21
121.587
  0
LINE
  8
0
 10
-154.518
 20
121.587
 11
-154.875
 21
121.749
  0
LINE
  8
0
 10
-154.875
 20
121.749
 11
-155.194
 21
121.977
  0
LINE
  8
0
 10
-155.194
 20
121.977
 11
-155.462
 21
122.263
  0
LINE
  8
0
 10
-155.462
 20
122.263
 11
-155.669
 21
122.596
  0
LINE
  8
0
 10
-155.669
 20
122.596
 11
-155.807
 21
122.963
  0
LINE
  8
0
 10
-155.807
 20
122.963
 11
-155.871
 21
123.35
  0
LINE
  8
0
 10
-155.871
 20
123.35
 11
-155.858
 21
123.742
  0
LINE
  8
0
 10
-155.858
 20
123.742
 11
-155.769
 21
124.124
  0
LINE
  8
0
 10
-155.769
 20
124.124
 11
-155.607
 21
124.481
  0
LINE
  8
0
 10
-155.607
 20
124.481
 11
-155.379
 21
124.799
  0
LINE
  8
0
 10
-155.379
 20
124.799
 11
-155.092
 21
125.067
  0
LINE
  8
0
 10
-155.092
 20
125.067
 11
-154.76
 21
125.275
  0
LINE
  8
0
 10
-154.76
 20
125.275
 11
-154.393
 21
125.413
  0
LINE
  8
0
 10
-154.393
 20
125.413
 11
-154.006
 21
125.476
  0
LINE
  8
0
 10
-154.006
 20
125.476
 11
-153.614
 21
125.464
  0
LINE
  8
0
 10
-153.614
 20
125.464
 11
-153.232
 21
125.375
  0
LINE
  8
0
 10
-153.232
 20
125.375
 11
-152.875
 21
125.213
  0
LINE
  8
0
 10
-152.875
 20
125.213
 11
-152.556
 21
124.984
  0
LINE
  8
0
 10
-152.556
 20
124.984
 11
-152.288
 21
124.698
  0
LINE
  8
0
 10
-152.288
 20
124.698
 11
-152.081
 21
124.365
  0
LINE
  8
0
 10
-152.081
 20
124.365
 11
-151.943
 21
123.998
  0
LINE
  8
0
 10
-151.943
 20
123.998
 11
-151.879
 21
123.612
  0
LINE
  8
0
 10
-151.879
 20
123.612
 11
-151.892
 21
123.22
  0
LINE
  8
0
 10
-151.892
 20
123.22
 11
-151.981
 21
122.838
  0
LINE
  8
0
 10
-151.981
 20
122.838
 11
-152.143
 21
122.481
  0
LINE
  8
0
 10
-152.143
 20
122.481
 11
-152.371
 21
122.162
  0
LINE
  8
0
 10
-152.371
 20
122.162
 11
-152.657
 21
121.894
  0
LINE
  8
0
 10
-152.657
 20
121.894
 11
-152.99
 21
121.687
  0
LINE
  8
0
 10
-152.99
 20
121.687
 11
-153.357
 21
121.549
  0
LINE
  8
0
 10
-153.357
 20
121.549
 11
-153.744
 21
121.485
  0
LINE
  8
0
 10
-153.744
 20
121.485
 11
-154.136
 21
121.498
  0
LINE
  8
0
 10
153.357
 20
121.549
 11
152.99
 21
121.687
  0
LINE
  8
0
 10
152.99
 20
121.687
 11
152.657
 21
121.894
  0
LINE
  8
0
 10
152.657
 20
121.894
 11
152.371
 21
122.162
  0
LINE
  8
0
 10
152.371
 20
122.162
 11
152.143
 21
122.481
  0
LINE
  8
0
 10
152.143
 20
122.481
 11
151.981
 21
122.838
  0
LINE
  8
0
 10
151.981
 20
122.838
 11
151.892
 21
123.22
  0
LINE
  8
0
 10
151.892
 20
123.22
 11
151.879
 21
123.612
  0
LINE
  8
0
 10
151.879
 20
123.612
 11
151.943
 21
123.998
  0
LINE
  8
0
 10
151.943
 20
123.998
 11
152.081
 21
124.365
  0
LINE
  8
0
 10
152.081
 20
124.365
 11
152.288
 21
124.698
  0
LINE
  8
0
 10
152.288
 20
124.698
 11
152.556
 21
124.984
  0
LINE
  8
0
 10
152.556
 20
124.984
 11
152.875
 21
125.213
  0
LINE
  8
0
 10
152.875
 20
125.213
 11
153.232
 21
125.375
  0
LINE
  8
0
 10
153.232
 20
125.375
 11
153.614
 21
125.464
  0
LINE
  8
0
 10
153.614
 20
125.464
 11
154.006
 21
125.476
  0
LINE
  8
0
 10
154.006
 20
125.476
 11
154.393
 21
125.413
  0
LINE
  8
0
 10
154.393
 20
125.413
 11
154.76
 21
125.275
  0
LINE
  8
0
 10
154.76
 20
125.275
 11
155.092
 21
125.067
  0
LINE
  8
0
 10
155.092
 20
125.067
 11
155.379
 21
124.799
  0
LINE
  8
0
 10
155.379
 20
124.799
 11
155.607
 21
124.481
  0
LINE
  8
0
 10
155.607
 20
124.481
 11
155.769
 21
124.124
  0
LINE
  8
0
 10
155.769
 20
124.124
 11
155.858
 21
123.742
  0
LINE
  8
0
 10
155.858
 20
123.742
 11
155.871
 21
123.35
  0
LINE
  8
0
 10
155.871
 20
123.35
 11
155.807
 21
122.963
  0
LINE
  8
0
 10
155.807
 20
122.963
 11
155.669
 21
122.596
  0
LINE
  8
0
 10
155.669
 20
122.596
 11
155.462
 21
122.263
  0
LINE
  8
0
 10
155.462
 20
122.263
 11
155.194
 21
121.977
  0
LINE
  8
0
 10
155.194
 20
121.977
 11
154.875
 21
121.749
  0
LINE
  8
0
 10
154.875
 20
121.749
 11
154.518
 21
121.587
  0
LINE
  8
0
 10
154.518
 20
121.587
 11
154.136
 21
121.498
  0
LINE
  8
0
 10
154.136
 20
121.498
 11
153.744
 21
121.485
  0
LINE
  8
0
 10
153.744
 20
121.485
 11
153.357
 21
121.549
  0
LINE
  8
0
 10
216.529
 20
111.425
 11
216.071
 21
111.598
  0
LINE
  8
0
 10
216.071
 20
111.598
 11
215.654
 21
111.856
  0
LINE
  8
0
 10
215.654
 20
111.856
 11
215.297
 21
112.191
  0
LINE
  8
0
 10
215.297
 20
112.191
 11
215.011
 21
112.59
  0
LINE
  8
0
 10
215.011
 20
112.59
 11
214.809
 21
113.036
  0
LINE
  8
0
 10
214.809
 20
113.036
 11
214.698
 21
113.513
  0
LINE
  8
0
 10
214.698
 20
113.513
 11
214.682
 21
114.003
  0
LINE
  8
0
 10
214.682
 20
114.003
 11
214.761
 21
114.487
  0
LINE
  8
0
 10
214.761
 20
114.487
 11
214.934
 21
114.945
  0
LINE
  8
0
 10
214.934
 20
114.945
 11
215.193
 21
115.362
  0
LINE
  8
0
 10
215.193
 20
115.362
 11
215.528
 21
115.719
  0
LINE
  8
0
 10
215.528
 20
115.719
 11
215.926
 21
116.005
  0
LINE
  8
0
 10
215.926
 20
116.005
 11
216.373
 21
116.207
  0
LINE
  8
0
 10
216.373
 20
116.207
 11
216.85
 21
116.318
  0
LINE
  8
0
 10
216.85
 20
116.318
 11
217.34
 21
116.334
  0
LINE
  8
0
 10
217.34
 20
116.334
 11
217.823
 21
116.255
  0
LINE
  8
0
 10
217.823
 20
116.255
 11
218.282
 21
116.082
  0
LINE
  8
0
 10
218.282
 20
116.082
 11
218.698
 21
115.823
  0
LINE
  8
0
 10
218.698
 20
115.823
 11
219.056
 21
115.488
  0
LINE
  8
0
 10
219.056
 20
115.488
 11
219.341
 21
115.09
  0
LINE
  8
0
 10
219.341
 20
115.09
 11
219.544
 21
114.643
  0
LINE
  8
0
 10
219.544
 20
114.643
 11
219.655
 21
114.166
  0
LINE
  8
0
 10
219.655
 20
114.166
 11
219.671
 21
113.676
  0
LINE
  8
0
 10
219.671
 20
113.676
 11
219.591
 21
113.193
  0
LINE
  8
0
 10
219.591
 20
113.193
 11
219.418
 21
112.734
  0
LINE
  8
0
 10
219.418
 20
112.734
 11
219.16
 21
112.318
  0
LINE
  8
0
 10
219.16
 20
112.318
 11
218.825
 21
111.96
  0
LINE
  8
0
 10
218.825
 20
111.96
 11
218.426
 21
111.675
  0
LINE
  8
0
 10
218.426
 20
111.675
 11
217.98
 21
111.472
  0
LINE
  8
0
 10
217.98
 20
111.472
 11
217.503
 21
111.361
  0
LINE
  8
0
 10
217.503
 20
111.361
 11
217.013
 21
111.345
  0
LINE
  8
0
 10
217.013
 20
111.345
 11
216.529
 21
111.425
  0
LINE
  8
0
 10
-217.503
 20
111.361
 11
-217.98
 21
111.472
  0
LINE
  8
0
 10
-217.98
 20
111.472
 11
-218.426
 21
111.675
  0
LINE
  8
0
 10
-218.426
 20
111.675
 11
-218.825
 21
111.96
  0
LINE
  8
0
 10
-218.825
 20
111.96
 11
-219.16
 21
112.318
  0
LINE
  8
0
 10
-219.16
 20
112.318
 11
-219.418
 21
112.734
  0
LINE
  8
0
 10
-219.418
 20
112.734
 11
-219.591
 21
113.193
  0
LINE
  8
0
 10
-219.591
 20
113.193
 11
-219.671
 21
113.676
  0
LINE
  8
0
 10
-219.671
 20
113.676
 11
-219.655
 21
114.166
  0
LINE
  8
0
 10
-219.655
 20
114.166
 11
-219.544
 21
114.643
  0
LINE
  8
0
 10
-219.544
 20
114.643
 11
-219.341
 21
115.09
  0
LINE
  8
0
 10
-219.341
 20
115.09
 11
-219.056
 21
115.488
  0
LINE
  8
0
 10
-219.056
 20
115.488
 11
-218.698
 21
115.823
  0
LINE
  8
0
 10
-218.698
 20
115.823
 11
-218.282
 21
116.082
  0
LINE
  8
0
 10
-218.282
 20
116.082
 11
-217.823
 21
116.255
  0
LINE
  8
0
 10
-217.823
 20
116.255
 11
-217.34
 21
116.334
  0
LINE
  8
0
 10
-217.34
 20
116.334
 11
-216.85
 21
116.318
  0
LINE
  8
0
 10
-216.85
 20
116.318
 11
-216.373
 21
116.207
  0
LINE
  8
0
 10
-216.373
 20
116.207
 11
-215.926
 21
116.005
  0
LINE
  8
0
 10
-215.926
 20
116.005
 11
-215.528
 21
115.719
  0
LINE
  8
0
 10
-215.528
 20
115.719
 11
-215.193
 21
115.362
  0
LINE
  8
0
 10
-215.193
 20
115.362
 11
-214.934
 21
114.945
  0
LINE
  8
0
 10
-214.934
 20
114.945
 11
-214.761
 21
114.487
  0
LINE
  8
0
 10
-214.761
 20
114.487
 11
-214.682
 21
114.003
  0
LINE
  8
0
 10
-214.682
 20
114.003
 11
-214.698
 21
113.513
  0
LINE
  8
0
 10
-214.698
 20
113.513
 11
-214.809
 21
113.036
  0
LINE
  8
0
 10
-214.809
 20
113.036
 11
-215.011
 21
112.59
  0
LINE
  8
0
 10
-215.011
 20
112.59
 11
-215.297
 21
112.191
  0
LINE
  8
0
 10
-215.297
 20
112.191
 11
-215.654
 21
111.856
  0
LINE
  8
0
 10
-215.654
 20
111.856
 11
-216.07
 21
111.598
  0
LINE
  8
0
 10
-216.07
 20
111.598
 11
-216.529
 21
111.425
  0
LINE
  8
0
 10
-216.529
 20
111.425
 11
-217.013
 21
111.345
  0
LINE
  8
0
 10
-217.013
 20
111.345
 11
-217.503
 21
111.361
  0
LINE
  8
0
 10
-227.503
 20
94.0406
 11
-227.98
 21
94.1519
  0
LINE
  8
0
 10
-227.98
 20
94.1519
 11
-228.426
 21
94.3542
  0
LINE
  8
0
 10
-228.426
 20
94.3542
 11
-228.825
 21
94.6396
  0
LINE
  8
0
 10
-228.825
 20
94.6396
 11
-229.16
 21
94.9973
  0
LINE
  8
0
 10
-229.16
 20
94.9973
 11
-229.418
 21
95.4135
  0
LINE
  8
0
 10
-229.418
 20
95.4135
 11
-229.591
 21
95.8722
  0
LINE
  8
0
 10
-229.591
 20
95.8722
 11
-229.671
 21
96.3557
  0
LINE
  8
0
 10
-229.671
 20
96.3557
 11
-229.655
 21
96.8456
  0
LINE
  8
0
 10
-229.655
 20
96.8456
 11
-229.544
 21
97.3228
  0
LINE
  8
0
 10
-229.544
 20
97.3228
 11
-229.341
 21
97.7692
  0
LINE
  8
0
 10
-229.341
 20
97.7692
 11
-229.056
 21
98.1676
  0
LINE
  8
0
 10
-229.056
 20
98.1676
 11
-228.698
 21
98.5026
  0
LINE
  8
0
 10
-228.698
 20
98.5026
 11
-228.282
 21
98.7614
  0
LINE
  8
0
 10
-228.282
 20
98.7614
 11
-227.823
 21
98.9341
  0
LINE
  8
0
 10
-227.823
 20
98.9341
 11
-227.34
 21
99.0139
  0
LINE
  8
0
 10
-227.34
 20
99.0139
 11
-226.85
 21
98.9978
  0
LINE
  8
0
 10
-226.85
 20
98.9978
 11
-226.373
 21
98.8866
  0
LINE
  8
0
 10
-226.373
 20
98.8866
 11
-225.926
 21
98.6843
  0
LINE
  8
0
 10
-225.926
 20
98.6843
 11
-225.528
 21
98.3988
  0
LINE
  8
0
 10
-225.528
 20
98.3988
 11
-225.193
 21
98.0411
  0
LINE
  8
0
 10
-225.193
 20
98.0411
 11
-224.934
 21
97.625
  0
LINE
  8
0
 10
-224.934
 20
97.625
 11
-224.761
 21
97.1663
  0
LINE
  8
0
 10
-224.761
 20
97.1663
 11
-224.682
 21
96.6827
  0
LINE
  8
0
 10
-224.682
 20
96.6827
 11
-224.698
 21
96.1929
  0
LINE
  8
0
 10
-224.698
 20
96.1929
 11
-224.809
 21
95.7156
  0
LINE
  8
0
 10
-224.809
 20
95.7156
 11
-225.011
 21
95.2692
  0
LINE
  8
0
 10
-225.011
 20
95.2692
 11
-225.297
 21
94.8709
  0
LINE
  8
0
 10
-225.297
 20
94.8709
 11
-225.654
 21
94.5359
  0
LINE
  8
0
 10
-225.654
 20
94.5359
 11
-226.07
 21
94.2771
  0
LINE
  8
0
 10
-226.07
 20
94.2771
 11
-226.529
 21
94.1044
  0
LINE
  8
0
 10
-226.529
 20
94.1044
 11
-227.013
 21
94.0246
  0
LINE
  8
0
 10
-227.013
 20
94.0246
 11
-227.503
 21
94.0406
  0
LINE
  8
0
 10
226.529
 20
94.1044
 11
226.071
 21
94.2771
  0
LINE
  8
0
 10
226.071
 20
94.2771
 11
225.654
 21
94.5359
  0
LINE
  8
0
 10
225.654
 20
94.5359
 11
225.297
 21
94.8709
  0
LINE
  8
0
 10
225.297
 20
94.8709
 11
225.011
 21
95.2692
  0
LINE
  8
0
 10
225.011
 20
95.2692
 11
224.809
 21
95.7156
  0
LINE
  8
0
 10
224.809
 20
95.7156
 11
224.698
 21
96.1929
  0
LINE
  8
0
 10
224.698
 20
96.1929
 11
224.682
 21
96.6827
  0
LINE
  8
0
 10
224.682
 20
96.6827
 11
224.761
 21
97.1663
  0
LINE
  8
0
 10
224.761
 20
97.1663
 11
224.934
 21
97.625
  0
LINE
  8
0
 10
224.934
 20
97.625
 11
225.193
 21
98.0411
  0
LINE
  8
0
 10
225.193
 20
98.0411
 11
225.528
 21
98.3988
  0
LINE
  8
0
 10
225.528
 20
98.3988
 11
225.926
 21
98.6843
  0
LINE
  8
0
 10
225.926
 20
98.6843
 11
226.373
 21
98.8866
  0
LINE
  8
0
 10
226.373
 20
98.8866
 11
226.85
 21
98.9978
  0
LINE
  8
0
 10
226.85
 20
98.9978
 11
227.34
 21
99.0139
  0
LINE
  8
0
 10
227.34
 20
99.0139
 11
227.823
 21
98.9341
  0
LINE
  8
0
 10
227.823
 20
98.9341
 11
228.282
 21
98.7614
  0
LINE
  8
0
 10
228.282
 20
98.7614
 11
228.698
 21
98.5026
  0
LINE
  8
0
 10
228.698
 20
98.5026
 11
229.056
 21
98.1676
  0
LINE
  8
0
 10
229.056
 20
98.1676
 11
229.341
 21
97.7692
  0
LINE
  8
0
 10
229.341
 20
97.7692
 11
229.544
 21
97.3228
  0
LINE
  8
0
 10
229.544
 20
97.3228
 11
229.655
 21
96.8456
  0
LINE
  8
0
 10
229.655
 20
96.8456
 11
229.671
 21
96.3557
  0
LINE
  8
0
 10
229.671
 20
96.3557
 11
229.591
 21
95.8722
  0
LINE
  8
0
 10
229.591
 20
95.8722
 11
229.418
 21
95.4135
  0
LINE
  8
0
 10
229.418
 20
95.4135
 11
229.16
 21
94.9973
  0
LINE
  8
0
 10
229.16
 20
94.9973
 11
228.825
 21
94.6396
  0
LINE
  8
0
 10
228.825
 20
94.6396
 11
228.426
 21
94.3542
  0
LINE
  8
0
 10
228.426
 20
94.3542
 11
227.98
 21
94.1519
  0
LINE
  8
0
 10
227.98
 20
94.1519
 11
227.503
 21
94.0406
  0
LINE
  8
0
 10
227.503
 20
94.0406
 11
227.013
 21
94.0246
  0
LINE
  8
0
 10
227.013
 20
94.0246
 11
226.529
 21
94.1044
  0
LINE
  8
0
 10
-102.174
 20
91.4979
 11
-102.556
 21
91.5869
  0
LINE
  8
0
 10
-102.556
 20
91.5869
 11
-102.913
 21
91.7487
  0
LINE
  8
0
 10
-102.913
 20
91.7487
 11
-103.232
 21
91.9771
  0
LINE
  8
0
 10
-103.232
 20
91.9771
 11
-103.5
 21
92.2632
  0
LINE
  8
0
 10
-103.5
 20
92.2632
 11
-103.707
 21
92.5962
  0
LINE
  8
0
 10
-103.707
 20
92.5962
 11
-103.845
 21
92.9631
  0
LINE
  8
0
 10
-103.845
 20
92.9631
 11
-103.909
 21
93.3499
  0
LINE
  8
0
 10
-103.909
 20
93.3499
 11
-103.896
 21
93.7418
  0
LINE
  8
0
 10
-103.896
 20
93.7418
 11
-103.807
 21
94.1236
  0
LINE
  8
0
 10
-103.807
 20
94.1236
 11
-103.645
 21
94.4808
  0
LINE
  8
0
 10
-103.645
 20
94.4808
 11
-103.417
 21
94.7995
  0
LINE
  8
0
 10
-103.417
 20
94.7995
 11
-103.131
 21
95.0675
  0
LINE
  8
0
 10
-103.131
 20
95.0675
 11
-102.798
 21
95.2745
  0
LINE
  8
0
 10
-102.798
 20
95.2745
 11
-102.431
 21
95.4126
  0
LINE
  8
0
 10
-102.431
 20
95.4126
 11
-102.044
 21
95.4765
  0
LINE
  8
0
 10
-102.044
 20
95.4765
 11
-101.652
 21
95.4637
  0
LINE
  8
0
 10
-101.652
 20
95.4637
 11
-101.271
 21
95.3746
  0
LINE
  8
0
 10
-101.271
 20
95.3746
 11
-100.913
 21
95.2128
  0
LINE
  8
0
 10
-100.913
 20
95.2128
 11
-100.595
 21
94.9844
  0
LINE
  8
0
 10
-100.595
 20
94.9844
 11
-100.327
 21
94.6983
  0
LINE
  8
0
 10
-100.327
 20
94.6983
 11
-100.12
 21
94.3653
  0
LINE
  8
0
 10
-100.12
 20
94.3653
 11
-99.9816
 21
93.9984
  0
LINE
  8
0
 10
-99.9816
 20
93.9984
 11
-99.9177
 21
93.6116
  0
LINE
  8
0
 10
-99.9177
 20
93.6116
 11
-99.9305
 21
93.2197
  0
LINE
  8
0
 10
-99.9305
 20
93.2197
 11
-100.02
 21
92.8379
  0
LINE
  8
0
 10
-100.02
 20
92.8379
 11
-100.181
 21
92.4808
  0
LINE
  8
0
 10
-100.181
 20
92.4808
 11
-100.41
 21
92.1621
  0
LINE
  8
0
 10
-100.41
 20
92.1621
 11
-100.696
 21
91.8941
  0
LINE
  8
0
 10
-100.696
 20
91.8941
 11
-101.029
 21
91.687
  0
LINE
  8
0
 10
-101.029
 20
91.687
 11
-101.396
 21
91.5489
  0
LINE
  8
0
 10
-101.396
 20
91.5489
 11
-101.783
 21
91.485
  0
LINE
  8
0
 10
-101.783
 20
91.485
 11
-102.174
 21
91.4979
  0
LINE
  8
0
 10
101.396
 20
91.5489
 11
101.029
 21
91.687
  0
LINE
  8
0
 10
101.029
 20
91.687
 11
100.696
 21
91.8941
  0
LINE
  8
0
 10
100.696
 20
91.8941
 11
100.41
 21
92.1621
  0
LINE
  8
0
 10
100.41
 20
92.1621
 11
100.181
 21
92.4808
  0
LINE
  8
0
 10
100.181
 20
92.4808
 11
100.02
 21
92.8379
  0
LINE
  8
0
 10
100.02
 20
92.8379
 11
99.9305
 21
93.2197
  0
LINE
  8
0
 10
99.9305
 20
93.2197
 11
99.9177
 21
93.6116
  0
LINE
  8
0
 10
99.9177
 20
93.6116
 11
99.9816
 21
93.9984
  0
LINE
  8
0
 10
99.9816
 20
93.9984
 11
100.12
 21
94.3653
  0
LINE
  8
0
 10
100.12
 20
94.3653
 11
100.327
 21
94.6983
  0
LINE
  8
0
 10
100.327
 20
94.6983
 11
100.595
 21
94.9844
  0
LINE
  8
0
 10
100.595
 20
94.9844
 11
100.913
 21
95.2128
  0
LINE
  8
0
 10
100.913
 20
95.2128
 11
101.271
 21
95.3746
  0
LINE
  8
0
 10
101.271
 20
95.3746
 11
101.652
 21
95.4637
  0
LINE
  8
0
 10
101.652
 20
95.4637
 11
102.044
 21
95.4765
  0
LINE
  8
0
 10
102.044
 20
95.4765
 11
102.431
 21
95.4126
  0
LINE
  8
0
 10
102.431
 20
95.4126
 11
102.798
 21
95.2745
  0
LINE
  8
0
 10
102.798
 20
95.2745
 11
103.131
 21
95.0675
  0
LINE
  8
0
 10
103.131
 20
95.0675
 11
103.417
 21
94.7995
  0
LINE
  8
0
 10
103.417
 20
94.7995
 11
103.645
 21
94.4808
  0
LINE
  8
0
 10
103.645
 20
94.4808
 11
103.807
 21
94.1236
  0
LINE
  8
0
 10
103.807
 20
94.1236
 11
103.896
 21
93.7418
  0
LINE
  8
0
 10
103.896
 20
93.7418
 11
103.909
 21
93.3499
  0
LINE
  8
0
 10
103.909
 20
93.3499
 11
103.845
 21
92.9631
  0
LINE
  8
0
 10
103.845
 20
92.9631
 11
103.707
 21
92.5962
  0
LINE
  8
0
 10
103.707
 20
92.5962
 11
103.5
 21
92.2632
  0
LINE
  8
0
 10
103.5
 20
92.2632
 11
103.232
 21
91.9771
  0
LINE
  8
0
 10
103.232
 20
91.9771
 11
102.913
 21
91.7487
  0
LINE
  8
0
 10
102.913
 20
91.7487
 11
102.556
 21
91.5869
  0
LINE
  8
0
 10
102.556
 20
91.5869
 11
102.174
 21
91.4979
  0
LINE
  8
0
 10
102.174
 20
91.4979
 11
101.783
 21
91.485
  0
LINE
  8
0
 10
101.783
 20
91.485
 11
101.396
 21
91.5489
  0
LINE
  8
0
 10
-210.182
 20
84.0406
 11
-210.659
 21
84.1519
  0
LINE
  8
0
 10
-210.659
 20
84.1519
 11
-211.106
 21
84.3542
  0
LINE
  8
0
 10
-211.106
 20
84.3542
 11
-211.504
 21
84.6396
  0
LINE
  8
0
 10
-211.504
 20
84.6396
 11
-211.839
 21
84.9973
  0
LINE
  8
0
 10
-211.839
 20
84.9973
 11
-212.098
 21
85.4135
  0
LINE
  8
0
 10
-212.098
 20
85.4135
 11
-212.271
 21
85.8722
  0
LINE
  8
0
 10
-212.271
 20
85.8722
 11
-212.35
 21
86.3557
  0
LINE
  8
0
 10
-212.35
 20
86.3557
 11
-212.334
 21
86.8456
  0
LINE
  8
0
 10
-212.334
 20
86.8456
 11
-212.223
 21
87.3228
  0
LINE
  8
0
 10
-212.223
 20
87.3228
 11
-212.021
 21
87.7692
  0
LINE
  8
0
 10
-212.021
 20
87.7692
 11
-211.735
 21
88.1676
  0
LINE
  8
0
 10
-211.735
 20
88.1676
 11
-211.378
 21
88.5026
  0
LINE
  8
0
 10
-211.378
 20
88.5026
 11
-210.961
 21
88.7614
  0
LINE
  8
0
 10
-210.961
 20
88.7614
 11
-210.503
 21
88.9341
  0
LINE
  8
0
 10
-210.503
 20
88.9341
 11
-210.019
 21
89.0139
  0
LINE
  8
0
 10
-210.019
 20
89.0139
 11
-209.529
 21
88.9978
  0
LINE
  8
0
 10
-209.529
 20
88.9978
 11
-209.052
 21
88.8866
  0
LINE
  8
0
 10
-209.052
 20
88.8866
 11
-208.606
 21
88.6843
  0
LINE
  8
0
 10
-208.606
 20
88.6843
 11
-208.207
 21
88.3988
  0
LINE
  8
0
 10
-208.207
 20
88.3988
 11
-207.872
 21
88.0411
  0
LINE
  8
0
 10
-207.872
 20
88.0411
 11
-207.614
 21
87.625
  0
LINE
  8
0
 10
-207.614
 20
87.625
 11
-207.441
 21
87.1663
  0
LINE
  8
0
 10
-207.441
 20
87.1663
 11
-207.361
 21
86.6827
  0
LINE
  8
0
 10
-207.361
 20
86.6827
 11
-207.377
 21
86.1929
  0
LINE
  8
0
 10
-207.377
 20
86.1929
 11
-207.488
 21
85.7156
  0
LINE
  8
0
 10
-207.488
 20
85.7156
 11
-207.691
 21
85.2692
  0
LINE
  8
0
 10
-207.691
 20
85.2692
 11
-207.976
 21
84.8709
  0
LINE
  8
0
 10
-207.976
 20
84.8709
 11
-208.334
 21
84.5359
  0
LINE
  8
0
 10
-208.334
 20
84.5359
 11
-208.75
 21
84.2771
  0
LINE
  8
0
 10
-208.75
 20
84.2771
 11
-209.209
 21
84.1044
  0
LINE
  8
0
 10
-209.209
 20
84.1044
 11
-209.692
 21
84.0246
  0
LINE
  8
0
 10
-209.692
 20
84.0246
 11
-210.182
 21
84.0406
  0
LINE
  8
0
 10
209.209
 20
84.1044
 11
208.75
 21
84.2771
  0
LINE
  8
0
 10
208.75
 20
84.2771
 11
208.334
 21
84.5359
  0
LINE
  8
0
 10
208.334
 20
84.5359
 11
207.976
 21
84.8709
  0
LINE
  8
0
 10
207.976
 20
84.8709
 11
207.691
 21
85.2692
  0
LINE
  8
0
 10
207.691
 20
85.2692
 11
207.488
 21
85.7156
  0
LINE
  8
0
 10
207.488
 20
85.7156
 11
207.377
 21
86.1929
  0
LINE
  8
0
 10
207.377
 20
86.1929
 11
207.361
 21
86.6827
  0
LINE
  8
0
 10
207.361
 20
86.6827
 11
207.441
 21
87.1663
  0
LINE
  8
0
 10
207.441
 20
87.1663
 11
207.614
 21
87.625
  0
LINE
  8
0
 10
207.614
 20
87.625
 11
207.872
 21
88.0411
  0
LINE
  8
0
 10
207.872
 20
88.0411
 11
208.207
 21
88.3988
  0
LINE
  8
0
 10
208.207
 20
88.3988
 11
208.606
 21
88.6843
  0
LINE
  8
0
 10
208.606
 20
88.6843
 11
209.052
 21
88.8866
  0
LINE
  8
0
 10
209.052
 20
88.8866
 11
209.529
 21
88.9978
  0
LINE
  8
0
 10
209.529
 20
88.9978
 11
210.019
 21
89.0139
  0
LINE
  8
0
 10
210.019
 20
89.0139
 11
210.503
 21
88.9341
  0
LINE
  8
0
 10
210.503
 20
88.9341
 11
210.961
 21
88.7614
  0
LINE
  8
0
 10
210.961
 20
88.7614
 11
211.378
 21
88.5026
  0
LINE
  8
0
 10
211.378
 20
88.5026
 11
211.735
 21
88.1676
  0
LINE
  8
0
 10
211.735
 20
88.1676
 11
212.021
 21
87.7692
  0
LINE
  8
0
 10
212.021
 20
87.7692
 11
212.223
 21
87.3228
  0
LINE
  8
0
 10
212.223
 20
87.3228
 11
212.334
 21
86.8456
  0
LINE
  8
0
 10
212.334
 20
86.8456
 11
212.35
 21
86.3557
  0
LINE
  8
0
 10
212.35
 20
86.3557
 11
212.271
 21
85.8722
  0
LINE
  8
0
 10
212.271
 20
85.8722
 11
212.098
 21
85.4135
  0
LINE
  8
0
 10
212.098
 20
85.4135
 11
211.839
 21
84.9973
  0
LINE
  8
0
 10
211.839
 20
84.9973
 11
211.504
 21
84.6396
  0
LINE
  8
0
 10
211.504
 20
84.6396
 11
211.106
 21
84.3542
  0
LINE
  8
0
 10
211.106
 20
84.3542
 11
210.659
 21
84.1519
  0
LINE
  8
0
 10
210.659
 20
84.1519
 11
210.182
 21
84.0406
  0
LINE
  8
0
 10
210.182
 20
84.0406
 11
209.692
 21
84.0246
  0
LINE
  8
0
 10
209.692
 20
84.0246
 11
209.209
 21
84.1044
  0
LINE
  8
0
 10
183.357
 20
69.5874
 11
182.99
 21
69.7255
  0
LINE
  8
0
 10
182.99
 20
69.7255
 11
182.657
 21
69.9325
  0
LINE
  8
0
 10
182.657
 20
69.9325
 11
182.371
 21
70.2005
  0
LINE
  8
0
 10
182.371
 20
70.2005
 11
182.143
 21
70.5192
  0
LINE
  8
0
 10
182.143
 20
70.5192
 11
181.981
 21
70.8764
  0
LINE
  8
0
 10
181.981
 20
70.8764
 11
181.892
 21
71.2582
  0
LINE
  8
0
 10
181.892
 20
71.2582
 11
181.879
 21
71.65
  0
LINE
  8
0
 10
181.879
 20
71.65
 11
181.943
 21
72.0369
  0
LINE
  8
0
 10
181.943
 20
72.0369
 11
182.081
 21
72.4038
  0
LINE
  8
0
 10
182.081
 20
72.4038
 11
182.288
 21
72.7368
  0
LINE
  8
0
 10
182.288
 20
72.7368
 11
182.556
 21
73.0229
  0
LINE
  8
0
 10
182.556
 20
73.0229
 11
182.875
 21
73.2513
  0
LINE
  8
0
 10
182.875
 20
73.2513
 11
183.232
 21
73.4131
  0
LINE
  8
0
 10
183.232
 20
73.4131
 11
183.614
 21
73.5021
  0
LINE
  8
0
 10
183.614
 20
73.5021
 11
184.006
 21
73.515
  0
LINE
  8
0
 10
184.006
 20
73.515
 11
184.393
 21
73.4511
  0
LINE
  8
0
 10
184.393
 20
73.4511
 11
184.76
 21
73.313
  0
LINE
  8
0
 10
184.76
 20
73.313
 11
185.092
 21
73.1059
  0
LINE
  8
0
 10
185.092
 20
73.1059
 11
185.379
 21
72.8379
  0
LINE
  8
0
 10
185.379
 20
72.8379
 11
185.607
 21
72.5192
  0
LINE
  8
0
 10
185.607
 20
72.5192
 11
185.769
 21
72.1621
  0
LINE
  8
0
 10
185.769
 20
72.1621
 11
185.858
 21
71.7803
  0
LINE
  8
0
 10
185.858
 20
71.7803
 11
185.871
 21
71.3884
  0
LINE
  8
0
 10
185.871
 20
71.3884
 11
185.807
 21
71.0016
  0
LINE
  8
0
 10
185.807
 20
71.0016
 11
185.669
 21
70.6347
  0
LINE
  8
0
 10
185.669
 20
70.6347
 11
185.462
 21
70.3017
  0
LINE
  8
0
 10
185.462
 20
70.3017
 11
185.194
 21
70.0155
  0
LINE
  8
0
 10
185.194
 20
70.0155
 11
184.875
 21
69.7872
  0
LINE
  8
0
 10
184.875
 20
69.7872
 11
184.518
 21
69.6254
  0
LINE
  8
0
 10
184.518
 20
69.6254
 11
184.136
 21
69.5363
  0
LINE
  8
0
 10
184.136
 20
69.5363
 11
183.744
 21
69.5235
  0
LINE
  8
0
 10
183.744
 20
69.5235
 11
183.357
 21
69.5874
  0
LINE
  8
0
 10
-184.136
 20
69.5363
 11
-184.518
 21
69.6254
  0
LINE
  8
0
 10
-184.518
 20
69.6254
 11
-184.875
 21
69.7872
  0
LINE
  8
0
 10
-184.875
 20
69.7872
 11
-185.194
 21
70.0155
  0
LINE
  8
0
 10
-185.194
 20
70.0155
 11
-185.462
 21
70.3017
  0
LINE
  8
0
 10
-185.462
 20
70.3017
 11
-185.669
 21
70.6347
  0
LINE
  8
0
 10
-185.669
 20
70.6347
 11
-185.807
 21
71.0016
  0
LINE
  8
0
 10
-185.807
 20
71.0016
 11
-185.871
 21
71.3884
  0
LINE
  8
0
 10
-185.871
 20
71.3884
 11
-185.858
 21
71.7803
  0
LINE
  8
0
 10
-185.858
 20
71.7803
 11
-185.769
 21
72.1621
  0
LINE
  8
0
 10
-185.769
 20
72.1621
 11
-185.607
 21
72.5192
  0
LINE
  8
0
 10
-185.607
 20
72.5192
 11
-185.379
 21
72.8379
  0
LINE
  8
0
 10
-185.379
 20
72.8379
 11
-185.092
 21
73.1059
  0
LINE
  8
0
 10
-185.092
 20
73.1059
 11
-184.76
 21
73.313
  0
LINE
  8
0
 10
-184.76
 20
73.313
 11
-184.393
 21
73.4511
  0
LINE
  8
0
 10
-184.393
 20
73.4511
 11
-184.006
 21
73.515
  0
LINE
  8
0
 10
-184.006
 20
73.515
 11
-183.614
 21
73.5021
  0
LINE
  8
0
 10
-183.614
 20
73.5021
 11
-183.232
 21
73.4131
  0
LINE
  8
0
 10
-183.232
 20
73.4131
 11
-182.875
 21
73.2513
  0
LINE
  8
0
 10
-182.875
 20
73.2513
 11
-182.556
 21
73.0229
  0
LINE
  8
0
 10
-182.556
 20
73.0229
 11
-182.288
 21
72.7368
  0
LINE
  8
0
 10
-182.288
 20
72.7368
 11
-182.081
 21
72.4038
  0
LINE
  8
0
 10
-182.081
 20
72.4038
 11
-181.943
 21
72.0369
  0
LINE
  8
0
 10
-181.943
 20
72.0369
 11
-181.879
 21
71.65
  0
LINE
  8
0
 10
-181.879
 20
71.65
 11
-181.892
 21
71.2582
  0
LINE
  8
0
 10
-181.892
 20
71.2582
 11
-181.981
 21
70.8764
  0
LINE
  8
0
 10
-181.981
 20
70.8764
 11
-182.143
 21
70.5192
  0
LINE
  8
0
 10
-182.143
 20
70.5192
 11
-182.371
 21
70.2005
  0
LINE
  8
0
 10
-182.371
 20
70.2005
 11
-182.657
 21
69.9325
  0
LINE
  8
0
 10
-182.657
 20
69.9325
 11
-182.99
 21
69.7255
  0
LINE
  8
0
 10
-182.99
 20
69.7255
 11
-183.357
 21
69.5874
  0
LINE
  8
0
 10
-183.357
 20
69.5874
 11
-183.744
 21
69.5235
  0
LINE
  8
0
 10
-183.744
 20
69.5235
 11
-184.136
 21
69.5363
  0
LINE
  8
0
 10
-50.213
 20
61.4979
 11
-50.5948
 21
61.5869
  0
LINE
  8
0
 10
-50.5948
 20
61.5869
 11
-50.9519
 21
61.7487
  0
LINE
  8
0
 10
-50.9519
 20
61.7487
 11
-51.2706
 21
61.9771
  0
LINE
  8
0
 10
-51.2706
 20
61.9771
 11
-51.5386
 21
62.2632
  0
LINE
  8
0
 10
-51.5386
 20
62.2632
 11
-51.7457
 21
62.5962
  0
LINE
  8
0
 10
-51.7457
 20
62.5962
 11
-51.8838
 21
62.9631
  0
LINE
  8
0
 10
-51.8838
 20
62.9631
 11
-51.9476
 21
63.3499
  0
LINE
  8
0
 10
-51.9476
 20
63.3499
 11
-51.9348
 21
63.7418
  0
LINE
  8
0
 10
-51.9348
 20
63.7418
 11
-51.8458
 21
64.1236
  0
LINE
  8
0
 10
-51.8458
 20
64.1236
 11
-51.6839
 21
64.4808
  0
LINE
  8
0
 10
-51.6839
 20
64.4808
 11
-51.4556
 21
64.7995
  0
LINE
  8
0
 10
-51.4556
 20
64.7995
 11
-51.1694
 21
65.0675
  0
LINE
  8
0
 10
-51.1694
 20
65.0675
 11
-50.8365
 21
65.2745
  0
LINE
  8
0
 10
-50.8365
 20
65.2745
 11
-50.4695
 21
65.4126
  0
LINE
  8
0
 10
-50.4695
 20
65.4126
 11
-50.0827
 21
65.4765
  0
LINE
  8
0
 10
-50.0827
 20
65.4765
 11
-49.6908
 21
65.4637
  0
LINE
  8
0
 10
-49.6908
 20
65.4637
 11
-49.309
 21
65.3746
  0
LINE
  8
0
 10
-49.309
 20
65.3746
 11
-48.9519
 21
65.2128
  0
LINE
  8
0
 10
-48.9519
 20
65.2128
 11
-48.6332
 21
64.9844
  0
LINE
  8
0
 10
-48.6332
 20
64.9844
 11
-48.3652
 21
64.6983
  0
LINE
  8
0
 10
-48.3652
 20
64.6983
 11
-48.1582
 21
64.3653
  0
LINE
  8
0
 10
-48.1582
 20
64.3653
 11
-48.0201
 21
63.9984
  0
LINE
  8
0
 10
-48.0201
 20
63.9984
 11
-47.9562
 21
63.6116
  0
LINE
  8
0
 10
-47.9562
 20
63.6116
 11
-47.969
 21
63.2197
  0
LINE
  8
0
 10
-47.969
 20
63.2197
 11
-48.058
 21
62.8379
  0
LINE
  8
0
 10
-48.058
 20
62.8379
 11
-48.2198
 21
62.4808
  0
LINE
  8
0
 10
-48.2198
 20
62.4808
 11
-48.4482
 21
62.1621
  0
LINE
  8
0
 10
-48.4482
 20
62.1621
 11
-48.7344
 21
61.894
  0
LINE
  8
0
 10
-48.7344
 20
61.894
 11
-49.0673
 21
61.687
  0
LINE
  8
0
 10
-49.0673
 20
61.687
 11
-49.4343
 21
61.5489
  0
LINE
  8
0
 10
-49.4343
 20
61.5489
 11
-49.8211
 21
61.485
  0
LINE
  8
0
 10
-49.8211
 20
61.485
 11
-50.213
 21
61.4979
  0
LINE
  8
0
 10
49.4343
 20
61.5489
 11
49.0673
 21
61.687
  0
LINE
  8
0
 10
49.0673
 20
61.687
 11
48.7344
 21
61.894
  0
LINE
  8
0
 10
48.7344
 20
61.894
 11
48.4482
 21
62.1621
  0
LINE
  8
0
 10
48.4482
 20
62.1621
 11
48.2198
 21
62.4808
  0
LINE
  8
0
 10
48.2198
 20
62.4808
 11
48.058
 21
62.8379
  0
LINE
  8
0
 10
48.058
 20
62.8379
 11
47.969
 21
63.2197
  0
LINE
  8
0
 10
47.969
 20
63.2197
 11
47.9562
 21
63.6116
  0
LINE
  8
0
 10
47.9562
 20
63.6116
 11
48.0201
 21
63.9984
  0
LINE
  8
0
 10
48.0201
 20
63.9984
 11
48.1582
 21
64.3653
  0
LINE
  8
0
 10
48.1582
 20
64.3653
 11
48.3652
 21
64.6983
  0
LINE
  8
0
 10
48.3652
 20
64.6983
 11
48.6332
 21
64.9844
  0
LINE
  8
0
 10
48.6332
 20
64.9844
 11
48.9519
 21
65.2128
  0
LINE
  8
0
 10
48.9519
 20
65.2128
 11
49.309
 21
65.3746
  0
LINE
  8
0
 10
49.309
 20
65.3746
 11
49.6908
 21
65.4637
  0
LINE
  8
0
 10
49.6908
 20
65.4637
 11
50.0827
 21
65.4765
  0
LINE
  8
0
 10
50.0827
 20
65.4765
 11
50.4695
 21
65.4126
  0
LINE
  8
0
 10
50.4695
 20
65.4126
 11
50.8365
 21
65.2745
  0
LINE
  8
0
 10
50.8365
 20
65.2745
 11
51.1694
 21
65.0675
  0
LINE
  8
0
 10
51.1694
 20
65.0675
 11
51.4556
 21
64.7995
  0
LINE
  8
0
 10
51.4556
 20
64.7995
 11
51.6839
 21
64.4808
  0
LINE
  8
0
 10
51.6839
 20
64.4808
 11
51.8458
 21
64.1236
  0
LINE
  8
0
 10
51.8458
 20
64.1236
 11
51.9348
 21
63.7418
  0
LINE
  8
0
 10
51.9348
 20
63.7418
 11
51.9476
 21
63.3499
  0
LINE
  8
0
 10
51.9476
 20
63.3499
 11
51.8838
 21
62.9631
  0
LINE
  8
0
 10
51.8838
 20
62.9631
 11
51.7457
 21
62.5962
  0
LINE
  8
0
 10
51.7457
 20
62.5962
 11
51.5386
 21
62.2632
  0
LINE
  8
0
 10
51.5386
 20
62.2632
 11
51.2706
 21
61.9771
  0
LINE
  8
0
 10
51.2706
 20
61.9771
 11
50.9519
 21
61.7487
  0
LINE
  8
0
 10
50.9519
 20
61.7487
 11
50.5948
 21
61.5869
  0
LINE
  8
0
 10
50.5948
 20
61.5869
 11
50.213
 21
61.4979
  0
LINE
  8
0
 10
50.213
 20
61.4979
 11
49.8211
 21
61.485
  0
LINE
  8
0
 10
49.8211
 20
61.485
 11
49.4343
 21
61.5489
  0
LINE
  8
0
 10
207.852
 20
54.4538
 11
207.394
 21
54.6264
  0
LINE
  8
0
 10
207.394
 20
54.6264
 11
206.977
 21
54.8852
  0
LINE
  8
0
 10
206.977
 20
54.8852
 11
206.62
 21
55.2202
  0
LINE
  8
0
 10
206.62
 20
55.2202
 11
206.334
 21
55.6186
  0
LINE
  8
0
 10
206.334
 20
55.6186
 11
206.132
 21
56.065
  0
LINE
  8
0
 10
206.132
 20
56.065
 11
206.021
 21
56.5423
  0
LINE
  8
0
 10
206.021
 20
56.5423
 11
206.005
 21
57.0321
  0
LINE
  8
0
 10
206.005
 20
57.0321
 11
206.084
 21
57.5156
  0
LINE
  8
0
 10
206.084
 20
57.5156
 11
206.257
 21
57.9743
  0
LINE
  8
0
 10
206.257
 20
57.9743
 11
206.516
 21
58.3905
  0
LINE
  8
0
 10
206.516
 20
58.3905
 11
206.851
 21
58.7482
  0
LINE
  8
0
 10
206.851
 20
58.7482
 11
207.249
 21
59.0337
  0
LINE
  8
0
 10
207.249
 20
59.0337
 11
207.696
 21
59.2359
  0
LINE
  8
0
 10
207.696
 20
59.2359
 11
208.173
 21
59.3472
  0
LINE
  8
0
 10
208.173
 20
59.3472
 11
208.663
 21
59.3633
  0
LINE
  8
0
 10
208.663
 20
59.3633
 11
209.146
 21
59.2834
  0
LINE
  8
0
 10
209.146
 20
59.2834
 11
209.605
 21
59.1108
  0
LINE
  8
0
 10
209.605
 20
59.1108
 11
210.021
 21
58.852
  0
LINE
  8
0
 10
210.021
 20
58.852
 11
210.379
 21
58.517
  0
LINE
  8
0
 10
210.379
 20
58.517
 11
210.664
 21
58.1186
  0
LINE
  8
0
 10
210.664
 20
58.1186
 11
210.867
 21
57.6722
  0
LINE
  8
0
 10
210.867
 20
57.6722
 11
210.978
 21
57.1949
  0
LINE
  8
0
 10
210.978
 20
57.1949
 11
210.994
 21
56.7051
  0
LINE
  8
0
 10
210.994
 20
56.7051
 11
210.914
 21
56.2215
  0
LINE
  8
0
 10
210.914
 20
56.2215
 11
210.741
 21
55.7629
  0
LINE
  8
0
 10
210.741
 20
55.7629
 11
210.483
 21
55.3467
  0
LINE
  8
0
 10
210.483
 20
55.3467
 11
210.148
 21
54.989
  0
LINE
  8
0
 10
210.148
 20
54.989
 11
209.749
 21
54.7035
  0
LINE
  8
0
 10
209.749
 20
54.7035
 11
209.303
 21
54.5013
  0
LINE
  8
0
 10
209.303
 20
54.5013
 11
208.826
 21
54.39
  0
LINE
  8
0
 10
208.826
 20
54.39
 11
208.336
 21
54.3739
  0
LINE
  8
0
 10
208.336
 20
54.3739
 11
207.852
 21
54.4538
  0
LINE
  8
0
 10
-208.826
 20
54.39
 11
-209.303
 21
54.5013
  0
LINE
  8
0
 10
-209.303
 20
54.5013
 11
-209.749
 21
54.7035
  0
LINE
  8
0
 10
-209.749
 20
54.7035
 11
-210.148
 21
54.989
  0
LINE
  8
0
 10
-210.148
 20
54.989
 11
-210.483
 21
55.3467
  0
LINE
  8
0
 10
-210.483
 20
55.3467
 11
-210.741
 21
55.7629
  0
LINE
  8
0
 10
-210.741
 20
55.7629
 11
-210.914
 21
56.2215
  0
LINE
  8
0
 10
-210.914
 20
56.2215
 11
-210.994
 21
56.7051
  0
LINE
  8
0
 10
-210.994
 20
56.7051
 11
-210.978
 21
57.1949
  0
LINE
  8
0
 10
-210.978
 20
57.1949
 11
-210.867
 21
57.6722
  0
LINE
  8
0
 10
-210.867
 20
57.6722
 11
-210.664
 21
58.1186
  0
LINE
  8
0
 10
-210.664
 20
58.1186
 11
-210.379
 21
58.517
  0
LINE
  8
0
 10
-210.379
 20
58.517
 11
-210.021
 21
58.852
  0
LINE
  8
0
 10
-210.021
 20
58.852
 11
-209.605
 21
59.1108
  0
LINE
  8
0
 10
-209.605
 20
59.1108
 11
-209.146
 21
59.2834
  0
LINE
  8
0
 10
-209.146
 20
59.2834
 11
-208.663
 21
59.3633
  0
LINE
  8
0
 10
-208.663
 20
59.3633
 11
-208.173
 21
59.3472
  0
LINE
  8
0
 10
-208.173
 20
59.3472
 11
-207.696
 21
59.2359
  0
LINE
  8
0
 10
-207.696
 20
59.2359
 11
-207.249
 21
59.0337
  0
LINE
  8
0
 10
-207.249
 20
59.0337
 11
-206.851
 21
58.7482
  0
LINE
  8
0
 10
-206.851
 20
58.7482
 11
-206.516
 21
58.3905
  0
LINE
  8
0
 10
-206.516
 20
58.3905
 11
-206.257
 21
57.9743
  0
LINE
  8
0
 10
-206.257
 20
57.9743
 11
-206.084
 21
57.5156
  0
LINE
  8
0
 10
-206.084
 20
57.5156
 11
-206.005
 21
57.0321
  0
LINE
  8
0
 10
-206.005
 20
57.0321
 11
-206.021
 21
56.5423
  0
LINE
  8
0
 10
-206.021
 20
56.5423
 11
-206.132
 21
56.065
  0
LINE
  8
0
 10
-206.132
 20
56.065
 11
-206.334
 21
55.6186
  0
LINE
  8
0
 10
-206.334
 20
55.6186
 11
-206.62
 21
55.2202
  0
LINE
  8
0
 10
-206.62
 20
55.2202
 11
-206.977
 21
54.8852
  0
LINE
  8
0
 10
-206.977
 20
54.8852
 11
-207.394
 21
54.6264
  0
LINE
  8
0
 10
-207.394
 20
54.6264
 11
-207.852
 21
54.4538
  0
LINE
  8
0
 10
-207.852
 20
54.4538
 11
-208.336
 21
54.3739
  0
LINE
  8
0
 10
-208.336
 20
54.3739
 11
-208.826
 21
54.39
  0
LINE
  8
0
 10
-132.174
 20
39.5363
 11
-132.556
 21
39.6254
  0
LINE
  8
0
 10
-132.556
 20
39.6254
 11
-132.913
 21
39.7872
  0
LINE
  8
0
 10
-132.913
 20
39.7872
 11
-133.232
 21
40.0155
  0
LINE
  8
0
 10
-133.232
 20
40.0155
 11
-133.5
 21
40.3017
  0
LINE
  8
0
 10
-133.5
 20
40.3017
 11
-133.707
 21
40.6347
  0
LINE
  8
0
 10
-133.707
 20
40.6347
 11
-133.845
 21
41.0016
  0
LINE
  8
0
 10
-133.845
 20
41.0016
 11
-133.909
 21
41.3884
  0
LINE
  8
0
 10
-133.909
 20
41.3884
 11
-133.896
 21
41.7803
  0
LINE
  8
0
 10
-133.896
 20
41.7803
 11
-133.807
 21
42.1621
  0
LINE
  8
0
 10
-133.807
 20
42.1621
 11
-133.645
 21
42.5192
  0
LINE
  8
0
 10
-133.645
 20
42.5192
 11
-133.417
 21
42.8379
  0
LINE
  8
0
 10
-133.417
 20
42.8379
 11
-133.131
 21
43.1059
  0
LINE
  8
0
 10
-133.131
 20
43.1059
 11
-132.798
 21
43.313
  0
LINE
  8
0
 10
-132.798
 20
43.313
 11
-132.431
 21
43.4511
  0
LINE
  8
0
 10
-132.431
 20
43.4511
 11
-132.044
 21
43.515
  0
LINE
  8
0
 10
-132.044
 20
43.515
 11
-131.652
 21
43.5021
  0
LINE
  8
0
 10
-131.652
 20
43.5021
 11
-131.271
 21
43.4131
  0
LINE
  8
0
 10
-131.271
 20
43.4131
 11
-130.913
 21
43.2513
  0
LINE
  8
0
 10
-130.913
 20
43.2513
 11
-130.595
 21
43.0229
  0
LINE
  8
0
 10
-130.595
 20
43.0229
 11
-130.327
 21
42.7368
  0
LINE
  8
0
 10
-130.327
 20
42.7368
 11
-130.12
 21
42.4038
  0
LINE
  8
0
 10
-130.12
 20
42.4038
 11
-129.982
 21
42.0369
  0
LINE
  8
0
 10
-129.982
 20
42.0369
 11
-129.918
 21
41.65
  0
LINE
  8
0
 10
-129.918
 20
41.65
 11
-129.931
 21
41.2582
  0
LINE
  8
0
 10
-129.931
 20
41.2582
 11
-130.02
 21
40.8764
  0
LINE
  8
0
 10
-130.02
 20
40.8764
 11
-130.181
 21
40.5192
  0
LINE
  8
0
 10
-130.181
 20
40.5192
 11
-130.41
 21
40.2005
  0
LINE
  8
0
 10
-130.41
 20
40.2005
 11
-130.696
 21
39.9325
  0
LINE
  8
0
 10
-130.696
 20
39.9325
 11
-131.029
 21
39.7255
  0
LINE
  8
0
 10
-131.029
 20
39.7255
 11
-131.396
 21
39.5874
  0
LINE
  8
0
 10
-131.396
 20
39.5874
 11
-131.783
 21
39.5235
  0
LINE
  8
0
 10
-131.783
 20
39.5235
 11
-132.174
 21
39.5363
  0
LINE
  8
0
 10
131.396
 20
39.5874
 11
131.029
 21
39.7255
  0
LINE
  8
0
 10
131.029
 20
39.7255
 11
130.696
 21
39.9325
  0
LINE
  8
0
 10
130.696
 20
39.9325
 11
130.41
 21
40.2005
  0
LINE
  8
0
 10
130.41
 20
40.2005
 11
130.181
 21
40.5192
  0
LINE
  8
0
 10
130.181
 20
40.5192
 11
130.02
 21
40.8764
  0
LINE
  8
0
 10
130.02
 20
40.8764
 11
129.931
 21
41.2582
  0
LINE
  8
0
 10
129.931
 20
41.2582
 11
129.918
 21
41.65
  0
LINE
  8
0
 10
129.918
 20
41.65
 11
129.982
 21
42.0369
  0
LINE
  8
0
 10
129.982
 20
42.0369
 11
130.12
 21
42.4038
  0
LINE
  8
0
 10
130.12
 20
42.4038
 11
130.327
 21
42.7368
  0
LINE
  8
0
 10
130.327
 20
42.7368
 11
130.595
 21
43.0229
  0
LINE
  8
0
 10
130.595
 20
43.0229
 11
130.913
 21
43.2513
  0
LINE
  8
0
 10
130.913
 20
43.2513
 11
131.271
 21
43.4131
  0
LINE
  8
0
 10
131.271
 20
43.4131
 11
131.652
 21
43.5021
  0
LINE
  8
0
 10
131.652
 20
43.5021
 11
132.044
 21
43.515
  0
LINE
  8
0
 10
132.044
 20
43.515
 11
132.431
 21
43.4511
  0
LINE
  8
0
 10
132.431
 20
43.4511
 11
132.798
 21
43.313
  0
LINE
  8
0
 10
132.798
 20
43.313
 11
133.131
 21
43.1059
  0
LINE
  8
0
 10
133.131
 20
43.1059
 11
133.417
 21
42.8379
  0
LINE
  8
0
 10
133.417
 20
42.8379
 11
133.645
 21
42.5192
  0
LINE
  8
0
 10
133.645
 20
42.5192
 11
133.807
 21
42.1621
  0
LINE
  8
0
 10
133.807
 20
42.1621
 11
133.896
 21
41.7803
  0
LINE
  8
0
 10
133.896
 20
41.7803
 11
133.909
 21
41.3884
  0
LINE
  8
0
 10
133.909
 20
41.3884
 11
133.845
 21
41.0016
  0
LINE
  8
0
 10
133.845
 20
41.0016
 11
133.707
 21
40.6347
  0
LINE
  8
0
 10
133.707
 20
40.6347
 11
133.5
 21
40.3017
  0
LINE
  8
0
 10
133.5
 20
40.3017
 11
133.232
 21
40.0155
  0
LINE
  8
0
 10
133.232
 20
40.0155
 11
132.913
 21
39.7872
  0
LINE
  8
0
 10
132.913
 20
39.7872
 11
132.556
 21
39.6254
  0
LINE
  8
0
 10
132.556
 20
39.6254
 11
132.174
 21
39.5363
  0
LINE
  8
0
 10
132.174
 20
39.5363
 11
131.783
 21
39.5235
  0
LINE
  8
0
 10
131.783
 20
39.5235
 11
131.396
 21
39.5874
  0
LINE
  8
0
 10
-1.22668
 20
-24.9699
 11
-2.45042
 21
-24.8796
  0
LINE
  8
0
 10
-2.45042
 20
-24.8796
 11
-3.66826
 21
-24.7294
  0
LINE
  8
0
 10
-3.66826
 20
-24.7294
 11
-4.87724
 21
-24.5196
  0
LINE
  8
0
 10
-4.87724
 20
-24.5196
 11
-6.07449
 21
-24.2508
  0
LINE
  8
0
 10
-6.07449
 20
-24.2508
 11
-7.25711
 21
-23.9235
  0
LINE
  8
0
 10
-7.25711
 20
-23.9235
 11
-8.42224
 21
-23.5386
  0
LINE
  8
0
 10
-8.42224
 20
-23.5386
 11
-9.56708
 21
-23.097
  0
LINE
  8
0
 10
-9.56708
 20
-23.097
 11
-10.6889
 21
-22.5997
  0
LINE
  8
0
 10
-10.6889
 20
-22.5997
 11
-11.7849
 21
-22.048
  0
LINE
  8
0
 10
-11.7849
 20
-22.048
 11
-12.8526
 21
-21.4432
  0
LINE
  8
0
 10
-12.8526
 20
-21.4432
 11
-13.8893
 21
-20.7867
  0
LINE
  8
0
 10
-13.8893
 20
-20.7867
 11
-14.8925
 21
-20.0802
  0
LINE
  8
0
 10
-14.8925
 20
-20.0802
 11
-15.8598
 21
-19.3253
  0
LINE
  8
0
 10
-15.8598
 20
-19.3253
 11
-16.789
 21
-18.5238
  0
LINE
  8
0
 10
-16.789
 20
-18.5238
 11
-17.6777
 21
-17.6777
  0
LINE
  8
0
 10
-17.6777
 20
-17.6777
 11
-18.5238
 21
-16.789
  0
LINE
  8
0
 10
-18.5238
 20
-16.789
 11
-19.3253
 21
-15.8598
  0
LINE
  8
0
 10
-19.3253
 20
-15.8598
 11
-20.0802
 21
-14.8925
  0
LINE
  8
0
 10
-20.0802
 20
-14.8925
 11
-20.7867
 21
-13.8893
  0
LINE
  8
0
 10
-20.7867
 20
-13.8893
 11
-21.4432
 21
-12.8526
  0
LINE
  8
0
 10
-21.4432
 20
-12.8526
 11
-22.048
 21
-11.7849
  0
LINE
  8
0
 10
-22.048
 20
-11.7849
 11
-22.5997
 21
-10.6889
  0
LINE
  8
0
 10
-22.5997
 20
-10.6889
 11
-23.097
 21
-9.56708
  0
LINE
  8
0
 10
-23.097
 20
-9.56708
 11
-23.5386
 21
-8.42224
  0
LINE
  8
0
 10
-23.5386
 20
-8.42224
 11
-23.9235
 21
-7.25711
  0
LINE
  8
0
 10
-23.9235
 20
-7.25711
 11
-24.2508
 21
-6.07449
  0
LINE
  8
0
 10
-24.2508
 20
-6.07449
 11
-24.5196
 21
-4.87724
  0
LINE
  8
0
 10
-24.5196
 20
-4.87724
 11
-24.7294
 21
-3.66826
  0
LINE
  8
0
 10
-24.7294
 20
-3.66826
 11
-24.8796
 21
-2.45042
  0
LINE
  8
0
 10
-24.8796
 20
-2.45042
 11
-24.9699
 21
-1.22668
  0
LINE
  8
0
 10
-24.9699
 20
-1.22668
 11
-25
 21
0
  0
LINE
  8
0
 10
-25
 20
0
 11
-24.9699
 21
1.22668
  0
LINE
  8
0
 10
-24.9699
 20
1.22668
 11
-24.8796
 21
2.45042
  0
LINE
  8
0
 10
-24.8796
 20
2.45042
 11
-24.7294
 21
3.66826
  0
LINE
  8
0
 10
-24.7294
 20
3.66826
 11
-24.5196
 21
4.87724
  0
LINE
  8
0
 10
-24.5196
 20
4.87724
 11
-24.2508
 21
6.07449
  0
LINE
  8
0
 10
-24.2508
 20
6.07449
 11
-23.9235
 21
7.25711
  0
LINE
  8
0
 10
-23.9235
 20
7.25711
 11
-23.5386
 21
8.42224
  0
LINE
  8
0
 10
-23.5386
 20
8.42224
 11
-23.097
 21
9.56708
  0
LINE
  8
0
 10
-23.097
 20
9.56708
 11
-22.5997
 21
10.6889
  0
LINE
  8
0
 10
-22.5997
 20
10.6889
 11
-22.048
 21
11.7849
  0
LINE
  8
0
 10
-22.048
 20
11.7849
 11
-21.4432
 21
12.8526
  0
LINE
  8
0
 10
-21.4432
 20
12.8526
 11
-20.7867
 21
13.8893
  0
LINE
  8
0
 10
-20.7867
 20
13.8893
 11
-20.0802
 21
14.8925
  0
LINE
  8
0
 10
-20.0802
 20
14.8925
 11
-19.3253
 21
15.8598
  0
LINE
  8
0
 10
-19.3253
 20
15.8598
 11
-18.5238
 21
16.789
  0
LINE
  8
0
 10
-18.5238
 20
16.789
 11
-17.6777
 21
17.6777
  0
LINE
  8
0
 10
-17.6777
 20
17.6777
 11
-16.789
 21
18.5238
  0
LINE
  8
0
 10
-16.789
 20
18.5238
 11
-15.8598
 21
19.3253
  0
LINE
  8
0
 10
-15.8598
 20
19.3253
 11
-14.8925
 21
20.0802
  0
LINE
  8
0
 10
-14.8925
 20
20.0802
 11
-13.8893
 21
20.7867
  0
LINE
  8
0
 10
-13.8893
 20
20.7867
 11
-12.8526
 21
21.4432
  0
LINE
  8
0
 10
-12.8526
 20
21.4432
 11
-11.7849
 21
22.048
  0
LINE
  8
0
 10
-11.7849
 20
22.048
 11
-10.6889
 21
22.5997
  0
LINE
  8
0
 10
-10.6889
 20
22.5997
 11
-9.56708
 21
23.097
  0
LINE
  8
0
 10
-9.56708
 20
23.097
 11
-8.42224
 21
23.5386
  0
LINE
  8
0
 10
-8.42224
 20
23.5386
 11
-7.25711
 21
23.9235
  0
LINE
  8
0
 10
-7.25711
 20
23.9235
 11
-6.07449
 21
24.2508
  0
LINE
  8
0
 10
-6.07449
 20
24.2508
 11
-4.87724
 21
24.5196
  0
LINE
  8
0
 10
-4.87724
 20
24.5196
 11
-3.66826
 21
24.7294
  0
LINE
  8
0
 10
-3.66826
 20
24.7294
 11
-2.45042
 21
24.8796
  0
LINE
  8
0
 10
-2.45042
 20
24.8796
 11
-1.22668
 21
24.9699
  0
LINE
  8
0
 10
-1.22668
 20
24.9699
 11
0
 21
25
  0
LINE
  8
0
 10
0
 20
25
 11
1.22668
 21
24.9699
  0
LINE
  8
0
 10
1.22668
 20
24.9699
 11
2.45042
 21
24.8796
  0
LINE
  8
0
 10
2.45042
 20
24.8796
 11
3.66826
 21
24.7294
  0
LINE
  8
0
 10
3.66826
 20
24.7294
 11
4.87724
 21
24.5196
  0
LINE
  8
0
 10
4.87724
 20
24.5196
 11
6.07449
 21
24.2508
  0
LINE
  8
0
 10
6.07449
 20
24.2508
 11
7.25711
 21
23.9235
  0
LINE
  8
0
 10
7.25711
 20
23.9235
 11
8.42224
 21
23.5386
  0
LINE
  8
0
 10
8.42224
 20
23.5386
 11
9.56708
 21
23.097
  0
LINE
  8
0
 10
9.56708
 20
23.097
 11
10.6889
 21
22.5997
  0
LINE
  8
0
 10
10.6889
 20
22.5997
 11
11.7849
 21
22.048
  0
LINE
  8
0
 10
11.7849
 20
22.048
 11
12.8526
 21
21.4432
  0
LINE
  8
0
 10
12.8526
 20
21.4432
 11
13.8893
 21
20.7867
  0
LINE
  8
0
 10
13.8893
 20
20.7867
 11
14.8925
 21
20.0802
  0
LINE
  8
0
 10
14.8925
 20
20.0802
 11
15.8598
 21
19.3253
  0
LINE
  8
0
 10
15.8598
 20
19.3253
 11
16.789
 21
18.5238
  0
LINE
  8
0
 10
16.789
 20
18.5238
 11
17.6777
 21
17.6777
  0
LINE
  8
0
 10
17.6777
 20
17.6777
 11
18.5238
 21
16.789
  0
LINE
  8
0
 10
18.5238
 20
16.789
 11
19.3253
 21
15.8598
  0
LINE
  8
0
 10
19.3253
 20
15.8598
 11
20.0802
 21
14.8925
  0
LINE
  8
0
 10
20.0802
 20
14.8925
 11
20.7867
 21
13.8893
  0
LINE
  8
0
 10
20.7867
 20
13.8893
 11
21.4432
 21
12.8526
  0
LINE
  8
0
 10
21.4432
 20
12.8526
 11
22.048
 21
11.7849
  0
LINE
  8
0
 10
22.048
 20
11.7849
 11
22.5997
 21
10.6889
  0
LINE
  8
0
 10
22.5997
 20
10.6889
 11
23.097
 21
9.56708
  0
LINE
  8
0
 10
23.097
 20
9.56708
 11
23.5386
 21
8.42224
  0
LINE
  8
0
 10
23.5386
 20
8.42224
 11
23.9235
 21
7.25711
  0
LINE
  8
0
 10
23.9235
 20
7.25711
 11
24.2508
 21
6.07449
  0
LINE
  8
0
 10
24.2508
 20
6.07449
 11
24.5196
 21
4.87724
  0
LINE
  8
0
 10
24.5196
 20
4.87724
 11
24.7294
 21
3.66826
  0
LINE
  8
0
 10
24.7294
 20
3.66826
 11
24.8796
 21
2.45042
  0
LINE
  8
0
 10
24.8796
 20
2.45042
 11
24.9699
 21
1.22668
  0
LINE
  8
0
 10
24.9699
 20
1.22668
 11
25
 21
0
  0
LINE
  8
0
 10
25
 20
0
 11
24.9699
 21
-1.22668
  0
LINE
  8
0
 10
24.9699
 20
-1.22668
 11
24.8796
 21
-2.45042
  0
LINE
  8
0
 10
24.8796
 20
-2.45042
 11
24.7294
 21
-3.66826
  0
LINE
  8
0
 10
24.7294
 20
-3.66826
 11
24.5196
 21
-4.87724
  0
LINE
  8
0
 10
24.5196
 20
-4.87724
 11
24.2508
 21
-6.07449
  0
LINE
  8
0
 10
24.2508
 20
-6.07449
 11
23.9235
 21
-7.25711
  0
LINE
  8
0
 10
23.9235
 20
-7.25711
 11
23.5386
 21
-8.42224
  0
LINE
  8
0
 10
23.5386
 20
-8.42224
 11
23.097
 21
-9.56708
  0
LINE
  8
0
 10
23.097
 20
-9.56708
 11
22.5997
 21
-10.6889
  0
LINE
  8
0
 10
22.5997
 20
-10.6889
 11
22.048
 21
-11.7849
  0
LINE
  8
0
 10
22.048
 20
-11.7849
 11
21.4432
 21
-12.8526
  0
LINE
  8
0
 10
21.4432
 20
-12.8526
 11
20.7867
 21
-13.8893
  0
LINE
  8
0
 10
20.7867
 20
-13.8893
 11
20.0802
 21
-14.8925
  0
LINE
  8
0
 10
20.0802
 20
-14.8925
 11
19.3253
 21
-15.8598
  0
LINE
  8
0
 10
19.3253
 20
-15.8598
 11
18.5238
 21
-16.789
  0
LINE
  8
0
 10
18.5238
 20
-16.789
 11
17.6777
 21
-17.6777
  0
LINE
  8
0
 10
17.6777
 20
-17.6777
 11
16.789
 21
-18.5238
  0
LINE
  8
0
 10
16.789
 20
-18.5238
 11
15.8598
 21
-19.3253
  0
LINE
  8
0
 10
15.8598
 20
-19.3253
 11
14.8925
 21
-20.0802
  0
LINE
  8
0
 10
14.8925
 20
-20.0802
 11
13.8893
 21
-20.7867
  0
LINE
  8
0
 10
13.8893
 20
-20.7867
 11
12.8526
 21
-21.4432
  0
LINE
  8
0
 10
12.8526
 20
-21.4432
 11
11.7849
 21
-22.048
  0
LINE
  8
0
 10
11.7849
 20
-22.048
 11
10.6889
 21
-22.5997
  0
LINE
  8
0
 10
10.6889
 20
-22.5997
 11
9.56708
 21
-23.097
  0
LINE
  8
0
 10
9.56708
 20
-23.097
 11
8.42224
 21
-23.5386
  0
LINE
  8
0
 10
8.42224
 20
-23.5386
 11
7.25711
 21
-23.9235
  0
LINE
  8
0
 10
7.25711
 20
-23.9235
 11
6.07449
 21
-24.2508
  0
LINE
  8
0
 10
6.07449
 20
-24.2508
 11
4.87724
 21
-24.5196
  0
LINE
  8
0
 10
4.87724
 20
-24.5196
 11
3.66826
 21
-24.7294
  0
LINE
  8
0
 10
3.66826
 20
-24.7294
 11
2.45042
 21
-24.8796
  0
LINE
  8
0
 10
2.45042
 20
-24.8796
 11
1.22668
 21
-24.9699
  0
LINE
  8
0
 10
1.22668
 20
-24.9699
 11
0
 21
-25
  0
LINE
  8
0
 10
0
 20
-25
 11
-1.22668
 21
-24.9699
  0
LINE
  8
0
 10
79.4343
 20
9.58737
 11
79.0673
 21
9.72548
  0
LINE
  8
0
 10
79.0673
 20
9.72548
 11
78.7344
 21
9.93253
  0
LINE
  8
0
 10
78.7344
 20
9.93253
 11
78.4482
 21
10.2005
  0
LINE
  8
0
 10
78.4482
 20
10.2005
 11
78.2198
 21
10.5192
  0
LINE
  8
0
 10
78.2198
 20
10.5192
 11
78.058
 21
10.8764
  0
LINE
  8
0
 10
78.058
 20
10.8764
 11
77.969
 21
11.2582
  0
LINE
  8
0
 10
77.969
 20
11.2582
 11
77.9562
 21
11.65
  0
LINE
  8
0
 10
77.9562
 20
11.65
 11
78.0201
 21
12.0369
  0
LINE
  8
0
 10
78.0201
 20
12.0369
 11
78.1582
 21
12.4038
  0
LINE
  8
0
 10
78.1582
 20
12.4038
 11
78.3652
 21
12.7368
  0
LINE
  8
0
 10
78.3652
 20
12.7368
 11
78.6332
 21
13.0229
  0
LINE
  8
0
 10
78.6332
 20
13.0229
 11
78.9519
 21
13.2513
  0
LINE
  8
0
 10
78.9519
 20
13.2513
 11
79.309
 21
13.4131
  0
LINE
  8
0
 10
79.309
 20
13.4131
 11
79.6909
 21
13.5021
  0
LINE
  8
0
 10
79.6909
 20
13.5021
 11
80.0827
 21
13.515
  0
LINE
  8
0
 10
80.0827
 20
13.515
 11
80.4695
 21
13.4511
  0
LINE
  8
0
 10
80.4695
 20
13.4511
 11
80.8365
 21
13.313
  0
LINE
  8
0
 10
80.8365
 20
13.313
 11
81.1694
 21
13.1059
  0
LINE
  8
0
 10
81.1694
 20
13.1059
 11
81.4556
 21
12.8379
  0
LINE
  8
0
 10
81.4556
 20
12.8379
 11
81.6839
 21
12.5192
  0
LINE
  8
0
 10
81.6839
 20
12.5192
 11
81.8458
 21
12.1621
  0
LINE
  8
0
 10
81.8458
 20
12.1621
 11
81.9348
 21
11.7803
  0
LINE
  8
0
 10
81.9348
 20
11.7803
 11
81.9476
 21
11.3884
  0
LINE
  8
0
 10
81.9476
 20
11.3884
 11
81.8838
 21
11.0016
  0
LINE
  8
0
 10
81.8838
 20
11.0016
 11
81.7457
 21
10.6347
  0
LINE
  8
0
 10
81.7457
 20
10.6347
 11
81.5386
 21
10.3017
  0
LINE
  8
0
 10
81.5386
 20
10.3017
 11
81.2706
 21
10.0155
  0
LINE
  8
0
 10
81.2706
 20
10.0155
 11
80.9519
 21
9.78719
  0
LINE
  8
0
 10
80.9519
 20
9.78719
 11
80.5948
 21
9.62537
  0
LINE
  8
0
 10
80.5948
 20
9.62537
 11
80.213
 21
9.53635
  0
LINE
  8
0
 10
80.213
 20
9.53635
 11
79.8211
 21
9.52351
  0
LINE
  8
0
 10
79.8211
 20
9.52351
 11
79.4343
 21
9.58737
  0
LINE
  8
0
 10
-80.213
 20
9.53635
 11
-80.5948
 21
9.62537
  0
LINE
  8
0
 10
-80.5948
 20
9.62537
 11
-80.9519
 21
9.78719
  0
LINE
  8
0
 10
-80.9519
 20
9.78719
 11
-81.2706
 21
10.0155
  0
LINE
  8
0
 10
-81.2706
 20
10.0155
 11
-81.5386
 21
10.3017
  0
LINE
  8
0
 10
-81.5386
 20
10.3017
 11
-81.7457
 21
10.6347
  0
LINE
  8
0
 10
-81.7457
 20
10.6347
 11
-81.8838
 21
11.0016
  0
LINE
  8
0
 10
-81.8838
 20
11.0016
 11
-81.9476
 21
11.3884
  0
LINE
  8
0
 10
-81.9476
 20
11.3884
 11
-81.9348
 21
11.7803
  0
LINE
  8
0
 10
-81.9348
 20
11.7803
 11
-81.8458
 21
12.1621
  0
LINE
  8
0
 10
-81.8458
 20
12.1621
 11
-81.6839
 21
12.5192
  0
LINE
  8
0
 10
-81.6839
 20
12.5192
 11
-81.4556
 21
12.8379
  0
LINE
  8
0
 10
-81.4556
 20
12.8379
 11
-81.1694
 21
13.1059
  0
LINE
  8
0
 10
-81.1694
 20
13.1059
 11
-80.8365
 21
13.313
  0
LINE
  8
0
 10
-80.8365
 20
13.313
 11
-80.4695
 21
13.4511
  0
LINE
  8
0
 10
-80.4695
 20
13.4511
 11
-80.0827
 21
13.515
  0
LINE
  8
0
 10
-80.0827
 20
13.515
 11
-79.6909
 21
13.5021
  0
LINE
  8
0
 10
-79.6909
 20
13.5021
 11
-79.309
 21
13.4131
  0
LINE
  8
0
 10
-79.309
 20
13.4131
 11
-78.9519
 21
13.2513
  0
LINE
  8
0
 10
-78.9519
 20
13.2513
 11
-78.6332
 21
13.0229
  0
LINE
  8
0
 10
-78.6332
 20
13.0229
 11
-78.3652
 21
12.7368
  0
LINE
  8
0
 10
-78.3652
 20
12.7368
 11
-78.1582
 21
12.4038
  0
LINE
  8
0
 10
-78.1582
 20
12.4038
 11
-78.0201
 21
12.0369
  0
LINE
  8
0
 10
-78.0201
 20
12.0369
 11
-77.9562
 21
11.65
  0
LINE
  8
0
 10
-77.9562
 20
11.65
 11
-77.969
 21
11.2582
  0
LINE
  8
0
 10
-77.969
 20
11.2582
 11
-78.058
 21
10.8764
  0
LINE
  8
0
 10
-78.058
 20
10.8764
 11
-78.2198
 21
10.5192
  0
LINE
  8
0
 10
-78.2198
 20
10.5192
 11
-78.4482
 21
10.2005
  0
LINE
  8
0
 10
-78.4482
 20
10.2005
 11
-78.7344
 21
9.93253
  0
LINE
  8
0
 10
-78.7344
 20
9.93253
 11
-79.0673
 21
9.72548
  0
LINE
  8
0
 10
-79.0673
 20
9.72548
 11
-79.4343
 21
9.58739
  0
LINE
  8
0
 10
-79.4343
 20
9.58739
 11
-79.8211
 21
9.52351
  0
LINE
  8
0
 10
-79.8211
 20
9.52351
 11
-80.213
 21
9.53635
  0
LINE
  8
0
 10
-171.9
 20
-9.65294
 11
-172.377
 21
-9.54166
  0
LINE
  8
0
 10
-172.377
 20
-9.54166
 11
-172.824
 21
-9.33939
  0
LINE
  8
0
 10
-172.824
 20
-9.33939
 11
-173.222
 21
-9.05392
  0
LINE
  8
0
 10
-173.222
 20
-9.05392
 11
-173.557
 21
-8.69623
  0
LINE
  8
0
 10
-173.557
 20
-8.69623
 11
-173.816
 21
-8.28004
  0
LINE
  8
0
 10
-173.816
 20
-8.28004
 11
-173.988
 21
-7.82138
  0
LINE
  8
0
 10
-173.988
 20
-7.82138
 11
-174.068
 21
-7.33784
  0
LINE
  8
0
 10
-174.068
 20
-7.33784
 11
-174.052
 21
-6.84801
  0
LINE
  8
0
 10
-174.052
 20
-6.84801
 11
-173.941
 21
-6.37073
  0
LINE
  8
0
 10
-173.941
 20
-6.37073
 11
-173.739
 21
-5.92433
  0
LINE
  8
0
 10
-173.739
 20
-5.92433
 11
-173.453
 21
-5.52597
  0
LINE
  8
0
 10
-173.453
 20
-5.52597
 11
-173.096
 21
-5.19095
  0
LINE
  8
0
 10
-173.096
 20
-5.19095
 11
-172.679
 21
-4.93214
  0
LINE
  8
0
 10
-172.679
 20
-4.93214
 11
-172.221
 21
-4.75952
  0
LINE
  8
0
 10
-172.221
 20
-4.75952
 11
-171.737
 21
-4.67969
  0
LINE
  8
0
 10
-171.737
 20
-4.67969
 11
-171.247
 21
-4.69572
  0
LINE
  8
0
 10
-171.247
 20
-4.69572
 11
-170.77
 21
-4.80701
  0
LINE
  8
0
 10
-170.77
 20
-4.80701
 11
-170.324
 21
-5.00926
  0
LINE
  8
0
 10
-170.324
 20
-5.00926
 11
-169.925
 21
-5.29472
  0
LINE
  8
0
 10
-169.925
 20
-5.29472
 11
-169.59
 21
-5.65242
  0
LINE
  8
0
 10
-169.59
 20
-5.65242
 11
-169.331
 21
-6.0686
  0
LINE
  8
0
 10
-169.331
 20
-6.0686
 11
-169.159
 21
-6.52728
  0
LINE
  8
0
 10
-169.159
 20
-6.52728
 11
-169.079
 21
-7.01082
  0
LINE
  8
0
 10
-169.079
 20
-7.01082
 11
-169.095
 21
-7.50064
  0
LINE
  8
0
 10
-169.095
 20
-7.50064
 11
-169.206
 21
-7.97792
  0
LINE
  8
0
 10
-169.206
 20
-7.97792
 11
-169.409
 21
-8.42433
  0
LINE
  8
0
 10
-169.409
 20
-8.42433
 11
-169.694
 21
-8.82269
  0
LINE
  8
0
 10
-169.694
 20
-8.82269
 11
-170.052
 21
-9.15771
  0
LINE
  8
0
 10
-170.052
 20
-9.15771
 11
-170.468
 21
-9.4165
  0
LINE
  8
0
 10
-170.468
 20
-9.4165
 11
-170.927
 21
-9.58914
  0
LINE
  8
0
 10
-170.927
 20
-9.58914
 11
-171.41
 21
-9.66898
  0
LINE
  8
0
 10
-171.41
 20
-9.66898
 11
-171.9
 21
-9.65294
  0
LINE
  8
0
 10
170.927
 20
-9.58914
 11
170.468
 21
-9.4165
  0
LINE
  8
0
 10
170.468
 20
-9.4165
 11
170.052
 21
-9.15771
  0
LINE
  8
0
 10
170.052
 20
-9.15771
 11
169.694
 21
-8.82269
  0
LINE
  8
0
 10
169.694
 20
-8.82269
 11
169.409
 21
-8.42433
  0
LINE
  8
0
 10
169.409
 20
-8.42433
 11
169.206
 21
-7.97792
  0
LINE
  8
0
 10
169.206
 20
-7.97792
 11
169.095
 21
-7.50064
  0
LINE
  8
0
 10
169.095
 20
-7.50064
 11
169.079
 21
-7.01082
  0
LINE
  8
0
 10
169.079
 20
-7.01082
 11
169.159
 21
-6.52728
  0
LINE
  8
0
 10
169.159
 20
-6.52728
 11
169.331
 21
-6.0686
  0
LINE
  8
0
 10
169.331
 20
-6.0686
 11
169.59
 21
-5.65242
  0
LINE
  8
0
 10
169.59
 20
-5.65242
 11
169.925
 21
-5.29472
  0
LINE
  8
0
 10
169.925
 20
-5.29472
 11
170.324
 21
-5.00926
  0
LINE
  8
0
 10
170.324
 20
-5.00926
 11
170.77
 21
-4.80701
  0
LINE
  8
0
 10
170.77
 20
-4.80701
 11
171.247
 21
-4.69572
  0
LINE
  8
0
 10
171.247
 20
-4.69572
 11
171.737
 21
-4.67969
  0
LINE
  8
0
 10
171.737
 20
-4.67969
 11
172.221
 21
-4.75952
  0
LINE
  8
0
 10
172.221
 20
-4.75952
 11
172.679
 21
-4.93214
  0
LINE
  8
0
 10
172.679
 20
-4.93214
 11
173.096
 21
-5.19095
  0
LINE
  8
0
 10
173.096
 20
-5.19095
 11
173.453
 21
-5.52597
  0
LINE
  8
0
 10
173.453
 20
-5.52597
 11
173.739
 21
-5.92433
  0
LINE
  8
0
 10
173.739
 20
-5.92433
 11
173.941
 21
-6.37073
  0
LINE
  8
0
 10
173.941
 20
-6.37073
 11
174.052
 21
-6.84801
  0
LINE
  8
0
 10
174.052
 20
-6.84801
 11
174.068
 21
-7.33784
  0
LINE
  8
0
 10
174.068
 20
-7.33784
 11
173.988
 21
-7.82138
  0
LINE
  8
0
 10
173.988
 20
-7.82138
 11
173.816
 21
-8.28004
  0
LINE
  8
0
 10
173.816
 20
-8.28004
 11
173.557
 21
-8.69623
  0
LINE
  8
0
 10
173.557
 20
-8.69623
 11
173.222
 21
-9.05392
  0
LINE
  8
0
 10
173.222
 20
-9.05392
 11
172.824
 21
-9.33939
  0
LINE
  8
0
 10
172.824
 20
-9.33939
 11
172.377
 21
-9.54166
  0
LINE
  8
0
 10
172.377
 20
-9.54166
 11
171.9
 21
-9.65294
  0
LINE
  8
0
 10
171.9
 20
-9.65294
 11
171.41
 21
-9.66898
  0
LINE
  8
0
 10
171.41
 20
-9.66898
 11
170.927
 21
-9.58914
  0
LINE
  8
0
 10
-30.3902
 20
-76.9616
 11
-30.7654
 21
-76.8478
  0
LINE
  8
0
 10
-30.7654
 20
-76.8478
 11
-31.1111
 21
-76.6629
  0
LINE
  8
0
 10
-31.1111
 20
-76.6629
 11
-31.4142
 21
-76.4142
  0
LINE
  8
0
 10
-31.4142
 20
-76.4142
 11
-31.6629
 21
-76.1111
  0
LINE
  8
0
 10
-31.6629
 20
-76.1111
 11
-31.8477
 21
-75.7654
  0
LINE
  8
0
 10
-31.8477
 20
-75.7654
 11
-31.9616
 21
-75.3902
  0
LINE
  8
0
 10
-31.9616
 20
-75.3902
 11
-32
 21
-75
  0
LINE
  8
0
 10
-32
 20
-75
 11
-31.9616
 21
-74.6098
  0
LINE
  8
0
 10
-31.9616
 20
-74.6098
 11
-31.8477
 21
-74.2346
  0
LINE
  8
0
 10
-31.8477
 20
-74.2346
 11
-31.6629
 21
-73.8889
  0
LINE
  8
0
 10
-31.6629
 20
-73.8889
 11
-31.4142
 21
-73.5858
  0
LINE
  8
0
 10
-31.4142
 20
-73.5858
 11
-31.1111
 21
-73.3371
  0
LINE
  8
0
 10
-31.1111
 20
-73.3371
 11
-30.7654
 21
-73.1522
  0
LINE
  8
0
 10
-30.7654
 20
-73.1522
 11
-30.3902
 21
-73.0384
  0
LINE
  8
0
 10
-30.3902
 20
-73.0384
 11
-30
 21
-73
  0
LINE
  8
0
 10
-30
 20
-73
 11
-29.6098
 21
-73.0384
  0
LINE
  8
0
 10
-29.6098
 20
-73.0384
 11
-29.2346
 21
-73.1522
  0
LINE
  8
0
 10
-29.2346
 20
-73.1522
 11
-28.8889
 21
-73.3371
  0
LINE
  8
0
 10
-28.8889
 20
-73.3371
 11
-28.5858
 21
-73.5858
  0
LINE
  8
0
 10
-28.5858
 20
-73.5858
 11
-28.3371
 21
-73.8889
  0
LINE
  8
0
 10
-28.3371
 20
-73.8889
 11
-28.1522
 21
-74.2346
  0
LINE
  8
0
 10
-28.1522
 20
-74.2346
 11
-28.0384
 21
-74.6098
  0
LINE
  8
0
 10
-28.0384
 20
-74.6098
 11
-28
 21
-75
  0
LINE
  8
0
 10
-28
 20
-75
 11
-28.0384
 21
-75.3902
  0
LINE
  8
0
 10
-28.0384
 20
-75.3902
 11
-28.1522
 21
-75.7654
  0
LINE
  8
0
 10
-28.1522
 20
-75.7654
 11
-28.3371
 21
-76.1111
  0
LINE
  8
0
 10
-28.3371
 20
-76.1111
 11
-28.5858
 21
-76.4142
  0
LINE
  8
0
 10
-28.5858
 20
-76.4142
 11
-28.8889
 21
-76.6629
  0
LINE
  8
0
 10
-28.8889
 20
-76.6629
 11
-29.2346
 21
-76.8478
  0
LINE
  8
0
 10
-29.2346
 20
-76.8478
 11
-29.6098
 21
-76.9616
  0
LINE
  8
0
 10
-29.6098
 20
-76.9616
 11
-30
 21
-77
  0
LINE
  8
0
 10
-30
 20
-77
 11
-30.3902
 21
-76.9616
  0
LINE
  8
0
 10
29.6098
 20
-76.9616
 11
29.2346
 21
-76.8478
  0
LINE
  8
0
 10
29.2346
 20
-76.8478
 11
28.8889
 21
-76.6629
  0
LINE
  8
0
 10
28.8889
 20
-76.6629
 11
28.5858
 21
-76.4142
  0
LINE
  8
0
 10
28.5858
 20
-76.4142
 11
28.3371
 21
-76.1111
  0
LINE
  8
0
 10
28.3371
 20
-76.1111
 11
28.1522
 21
-75.7654
  0
LINE
  8
0
 10
28.1522
 20
-75.7654
 11
28.0384
 21
-75.3902
  0
LINE
  8
0
 10
28.0384
 20
-75.3902
 11
28
 21
-75
  0
LINE
  8
0
 10
28
 20
-75
 11
28.0384
 21
-74.6098
  0
LINE
  8
0
 10
28.0384
 20
-74.6098
 11
28.1522
 21
-74.2346
  0
LINE
  8
0
 10
28.1522
 20
-74.2346
 11
28.3371
 21
-73.8889
  0
LINE
  8
0
 10
28.3371
 20
-73.8889
 11
28.5858
 21
-73.5858
  0
LINE
  8
0
 10
28.5858
 20
-73.5858
 11
28.8889
 21
-73.3371
  0
LINE
  8
0
 10
28.8889
 20
-73.3371
 11
29.2346
 21
-73.1522
  0
LINE
  8
0
 10
29.2346
 20
-73.1522
 11
29.6098
 21
-73.0384
  0
LINE
  8
0
 10
29.6098
 20
-73.0384
 11
30
 21
-73
  0
LINE
  8
0
 10
30
 20
-73
 11
30.3902
 21
-73.0384
  0
LINE
  8
0
 10
30.3902
 20
-73.0384
 11
30.7654
 21
-73.1522
  0
LINE
  8
0
 10
30.7654
 20
-73.1522
 11
31.1111
 21
-73.3371
  0
LINE
  8
0
 10
31.1111
 20
-73.3371
 11
31.4142
 21
-73.5858
  0
LINE
  8
0
 10
31.4142
 20
-73.5858
 11
31.6629
 21
-73.8889
  0
LINE
  8
0
 10
31.6629
 20
-73.8889
 11
31.8477
 21
-74.2346
  0
LINE
  8
0
 10
31.8477
 20
-74.2346
 11
31.9616
 21
-74.6098
  0
LINE
  8
0
 10
31.9616
 20
-74.6098
 11
32
 21
-75
  0
LINE
  8
0
 10
32
 20
-75
 11
31.9616
 21
-75.3902
  0
LINE
  8
0
 10
31.9616
 20
-75.3902
 11
31.8477
 21
-75.7654
  0
LINE
  8
0
 10
31.8477
 20
-75.7654
 11
31.6629
 21
-76.1111
  0
LINE
  8
0
 10
31.6629
 20
-76.1111
 11
31.4142
 21
-76.4142
  0
LINE
  8
0
 10
31.4142
 20
-76.4142
 11
31.1111
 21
-76.6629
  0
LINE
  8
0
 10
31.1111
 20
-76.6629
 11
30.7654
 21
-76.8478
  0
LINE
  8
0
 10
30.7654
 20
-76.8478
 11
30.3902
 21
-76.9616
  0
LINE
  8
0
 10
30.3902
 20
-76.9616
 11
30
 21
-77
  0
LINE
  8
0
 10
30
 20
-77
 11
29.6098
 21
-76.9616
  0
LINE
  8
0
 10
-30.3902
 20
-136.962
 11
-30.7654
 21
-136.848
  0
LINE
  8
0
 10
-30.7654
 20
-136.848
 11
-31.1111
 21
-136.663
  0
LINE
  8
0
 10
-31.1111
 20
-136.663
 11
-31.4142
 21
-136.414
  0
LINE
  8
0
 10
-31.4142
 20
-136.414
 11
-31.6629
 21
-136.111
  0
LINE
  8
0
 10
-31.6629
 20
-136.111
 11
-31.8477
 21
-135.765
  0
LINE
  8
0
 10
-31.8477
 20
-135.765
 11
-31.9616
 21
-135.39
  0
LINE
  8
0
 10
-31.9616
 20
-135.39
 11
-32
 21
-135
  0
LINE
  8
0
 10
-32
 20
-135
 11
-31.9616
 21
-134.61
  0
LINE
  8
0
 10
-31.9616
 20
-134.61
 11
-31.8477
 21
-134.235
  0
LINE
  8
0
 10
-31.8477
 20
-134.235
 11
-31.6629
 21
-133.889
  0
LINE
  8
0
 10
-31.6629
 20
-133.889
 11
-31.4142
 21
-133.586
  0
LINE
  8
0
 10
-31.4142
 20
-133.586
 11
-31.1111
 21
-133.337
  0
LINE
  8
0
 10
-31.1111
 20
-133.337
 11
-30.7654
 21
-133.152
  0
LINE
  8
0
 10
-30.7654
 20
-133.152
 11
-30.3902
 21
-133.038
  0
LINE
  8
0
 10
-30.3902
 20
-133.038
 11
-30
 21
-133
  0
LINE
  8
0
 10
-30
 20
-133
 11
-29.6098
 21
-133.038
  0
LINE
  8
0
 10
-29.6098
 20
-133.038
 11
-29.2346
 21
-133.152
  0
LINE
  8
0
 10
-29.2346
 20
-133.152
 11
-28.8889
 21
-133.337
  0
LINE
  8
0
 10
-28.8889
 20
-133.337
 11
-28.5858
 21
-133.586
  0
LINE
  8
0
 10
-28.5858
 20
-133.586
 11
-28.3371
 21
-133.889
  0
LINE
  8
0
 10
-28.3371
 20
-133.889
 11
-28.1522
 21
-134.235
  0
LINE
  8
0
 10
-28.1522
 20
-134.235
 11
-28.0384
 21
-134.61
  0
LINE
  8
0
 10
-28.0384
 20
-134.61
 11
-28
 21
-135
  0
LINE
  8
0
 10
-28
 20
-135
 11
-28.0384
 21
-135.39
  0
LINE
  8
0
 10
-28.0384
 20
-135.39
 11
-28.1522
 21
-135.765
  0
LINE
  8
0
 10
-28.1522
 20
-135.765
 11
-28.3371
 21
-136.111
  0
LINE
  8
0
 10
-28.3371
 20
-136.111
 11
-28.5858
 21
-136.414
  0
LINE
  8
0
 10
-28.5858
 20
-136.414
 11
-28.8889
 21
-136.663
  0
LINE
  8
0
 10
-28.8889
 20
-136.663
 11
-29.2346
 21
-136.848
  0
LINE
  8
0
 10
-29.2346
 20
-136.848
 11
-29.6098
 21
-136.962
  0
LINE
  8
0
 10
-29.6098
 20
-136.962
 11
-30
 21
-137
  0
LINE
  8
0
 10
-30
 20
-137
 11
-30.3902
 21
-136.962
  0
LINE
  8
0
 10
29.6098
 20
-136.962
 11
29.2346
 21
-136.848
  0
LINE
  8
0
 10
29.2346
 20
-136.848
 11
28.8889
 21
-136.663
  0
LINE
  8
0
 10
28.8889
 20
-136.663
 11
28.5858
 21
-136.414
  0
LINE
  8
0
 10
28.5858
 20
-136.414
 11
28.3371
 21
-136.111
  0
LINE
  8
0
 10
28.3371
 20
-136.111
 11
28.1522
 21
-135.765
  0
LINE
  8
0
 10
28.1522
 20
-135.765
 11
28.0384
 21
-135.39
  0
LINE
  8
0
 10
28.0384
 20
-135.39
 11
28
 21
-135
  0
LINE
  8
0
 10
28
 20
-135
 11
28.0384
 21
-134.61
  0
LINE
  8
0
 10
28.0384
 20
-134.61
 11
28.1522
 21
-134.235
  0
LINE
  8
0
 10
28.1522
 20
-134.235
 11
28.3371
 21
-133.889
  0
LINE
  8
0
 10
28.3371
 20
-133.889
 11
28.5858
 21
-133.586
  0
LINE
  8
0
 10
28.5858
 20
-133.586
 11
28.8889
 21
-133.337
  0
LINE
  8
0
 10
28.8889
 20
-133.337
 11
29.2346
 21
-133.152
  0
LINE
  8
0
 10
29.2346
 20
-133.152
 11
29.6098
 21
-133.038
  0
LINE
  8
0
 10
29.6098
 20
-133.038
 11
30
 21
-133
  0
LINE
  8
0
 10
30
 20
-133
 11
30.3902
 21
-133.038
  0
LINE
  8
0
 10
30.3902
 20
-133.038
 11
30.7654
 21
-133.152
  0
LINE
  8
0
 10
30.7654
 20
-133.152
 11
31.1111
 21
-133.337
  0
LINE
  8
0
 10
31.1111
 20
-133.337
 11
31.4142
 21
-133.586
  0
LINE
  8
0
 10
31.4142
 20
-133.586
 11
31.6629
 21
-133.889
  0
LINE
  8
0
 10
31.6629
 20
-133.889
 11
31.8477
 21
-134.235
  0
LINE
  8
0
 10
31.8477
 20
-134.235
 11
31.9616
 21
-134.61
  0
LINE
  8
0
 10
31.9616
 20
-134.61
 11
32
 21
-135
  0
LINE
  8
0
 10
32
 20
-135
 11
31.9616
 21
-135.39
  0
LINE
  8
0
 10
31.9616
 20
-135.39
 11
31.8477
 21
-135.765
  0
LINE
  8
0
 10
31.8477
 20
-135.765
 11
31.6629
 21
-136.111
  0
LINE
  8
0
 10
31.6629
 20
-136.111
 11
31.4142
 21
-136.414
  0
LINE
  8
0
 10
31.4142
 20
-136.414
 11
31.1111
 21
-136.663
  0
LINE
  8
0
 10
31.1111
 20
-136.663
 11
30.7654
 21
-136.848
  0
LINE
  8
0
 10
30.7654
 20
-136.848
 11
30.3902
 21
-136.962
  0
LINE
  8
0
 10
30.3902
 20
-136.962
 11
30
 21
-137
  0
LINE
  8
0
 10
30
 20
-137
 11
29.6098
 21
-136.962
  0
LINE
  8
0
 10
91.5123
 20
-147.452
 11
91.0433
 21
-147.31
  0
LINE
  8
0
 10
91.0433
 20
-147.31
 11
90.6111
 21
-147.079
  0
LINE
  8
0
 10
90.6111
 20
-147.079
 11
90.2322
 21
-146.768
  0
LINE
  8
0
 10
90.2322
 20
-146.768
 11
89.9213
 21
-146.389
  0
LINE
  8
0
 10
89.9213
 20
-146.389
 11
89.6903
 21
-145.957
  0
LINE
  8
0
 10
89.6903
 20
-145.957
 11
89.548
 21
-145.488
  0
LINE
  8
0
 10
89.548
 20
-145.488
 11
89.5
 21
-145
  0
LINE
  8
0
 10
89.5
 20
-145
 11
89.548
 21
-144.512
  0
LINE
  8
0
 10
89.548
 20
-144.512
 11
89.6903
 21
-144.043
  0
LINE
  8
0
 10
89.6903
 20
-144.043
 11
89.9213
 21
-143.611
  0
LINE
  8
0
 10
89.9213
 20
-143.611
 11
90.2322
 21
-143.232
  0
LINE
  8
0
 10
90.2322
 20
-143.232
 11
90.6111
 21
-142.921
  0
LINE
  8
0
 10
90.6111
 20
-142.921
 11
91.0433
 21
-142.69
  0
LINE
  8
0
 10
91.0433
 20
-142.69
 11
91.5123
 21
-142.548
  0
LINE
  8
0
 10
91.5123
 20
-142.548
 11
92
 21
-142.5
  0
LINE
  8
0
 10
92
 20
-142.5
 11
92.4877
 21
-142.548
  0
LINE
  8
0
 10
92.4877
 20
-142.548
 11
92.9567
 21
-142.69
  0
LINE
  8
0
 10
92.9567
 20
-142.69
 11
93.3889
 21
-142.921
  0
LINE
  8
0
 10
93.3889
 20
-142.921
 11
93.7678
 21
-143.232
  0
LINE
  8
0
 10
93.7678
 20
-143.232
 11
94.0787
 21
-143.611
  0
LINE
  8
0
 10
94.0787
 20
-143.611
 11
94.3097
 21
-144.043
  0
LINE
  8
0
 10
94.3097
 20
-144.043
 11
94.452
 21
-144.512
  0
LINE
  8
0
 10
94.452
 20
-144.512
 11
94.5
 21
-145
  0
LINE
  8
0
 10
94.5
 20
-145
 11
94.452
 21
-145.488
  0
LINE
  8
0
 10
94.452
 20
-145.488
 11
94.3097
 21
-145.957
  0
LINE
  8
0
 10
94.3097
 20
-145.957
 11
94.0787
 21
-146.389
  0
LINE
  8
0
 10
94.0787
 20
-146.389
 11
93.7678
 21
-146.768
  0
LINE
  8
0
 10
93.7678
 20
-146.768
 11
93.3889
 21
-147.079
  0
LINE
  8
0
 10
93.3889
 20
-147.079
 11
92.9567
 21
-147.31
  0
LINE
  8
0
 10
92.9567
 20
-147.31
 11
92.4877
 21
-147.452
  0
LINE
  8
0
 10
92.4877
 20
-147.452
 11
92
 21
-147.5
  0
LINE
  8
0
 10
92
 20
-147.5
 11
91.5123
 21
-147.452
  0
LINE
  8
0
 10
-92.4877
 20
-147.452
 11
-92.9567
 21
-147.31
  0
LINE
  8
0
 10
-92.9567
 20
-147.31
 11
-93.3889
 21
-147.079
  0
LINE
  8
0
 10
-93.3889
 20
-147.079
 11
-93.7678
 21
-146.768
  0
LINE
  8
0
 10
-93.7678
 20
-146.768
 11
-94.0787
 21
-146.389
  0
LINE
  8
0
 10
-94.0787
 20
-146.389
 11
-94.3097
 21
-145.957
  0
LINE
  8
0
 10
-94.3097
 20
-145.957
 11
-94.452
 21
-145.488
  0
LINE
  8
0
 10
-94.452
 20
-145.488
 11
-94.5
 21
-145
  0
LINE
  8
0
 10
-94.5
 20
-145
 11
-94.452
 21
-144.512
  0
LINE
  8
0
 10
-94.452
 20
-144.512
 11
-94.3097
 21
-144.043
  0
LINE
  8
0
 10
-94.3097
 20
-144.043
 11
-94.0787
 21
-143.611
  0
LINE
  8
0
 10
-94.0787
 20
-143.611
 11
-93.7678
 21
-143.232
  0
LINE
  8
0
 10
-93.7678
 20
-143.232
 11
-93.3889
 21
-142.921
  0
LINE
  8
0
 10
-93.3889
 20
-142.921
 11
-92.9567
 21
-142.69
  0
LINE
  8
0
 10
-92.9567
 20
-142.69
 11
-92.4877
 21
-142.548
  0
LINE
  8
0
 10
-92.4877
 20
-142.548
 11
-92
 21
-142.5
  0
LINE
  8
0
 10
-92
 20
-142.5
 11
-91.5123
 21
-142.548
  0
LINE
  8
0
 10
-91.5123
 20
-142.548
 11
-91.0433
 21
-142.69
  0
LINE
  8
0
 10
-91.0433
 20
-142.69
 11
-90.6111
 21
-142.921
  0
LINE
  8
0
 10
-90.6111
 20
-142.921
 11
-90.2322
 21
-143.232
  0
LINE
  8
0
 10
-90.2322
 20
-143.232
 11
-89.9213
 21
-143.611
  0
LINE
  8
0
 10
-89.9213
 20
-143.611
 11
-89.6903
 21
-144.043
  0
LINE
  8
0
 10
-89.6903
 20
-144.043
 11
-89.548
 21
-144.512
  0
LINE
  8
0
 10
-89.548
 20
-144.512
 11
-89.5
 21
-145
  0
LINE
  8
0
 10
-89.5
 20
-145
 11
-89.548
 21
-145.488
  0
LINE
  8
0
 10
-89.548
 20
-145.488
 11
-89.6903
 21
-145.957
  0
LINE
  8
0
 10
-89.6903
 20
-145.957
 11
-89.9213
 21
-146.389
  0
LINE
  8
0
 10
-89.9213
 20
-146.389
 11
-90.2322
 21
-146.768
  0
LINE
  8
0
 10
-90.2322
 20
-146.768
 11
-90.6111
 21
-147.079
  0
LINE
  8
0
 10
-90.6111
 20
-147.079
 11
-91.0433
 21
-147.31
  0
LINE
  8
0
 10
-91.0433
 20
-147.31
 11
-91.5123
 21
-147.452
  0
LINE
  8
0
 10
-91.5123
 20
-147.452
 11
-92
 21
-147.5
  0
LINE
  8
0
 10
-92
 20
-147.5
 11
-92.4877
 21
-147.452
  0
LINE
  8
0
 10
-30.3902
 20
-196.962
 11
-30.7654
 21
-196.848
  0
LINE
  8
0
 10
-30.7654
 20
-196.848
 11
-31.1111
 21
-196.663
  0
LINE
  8
0
 10
-31.1111
 20
-196.663
 11
-31.4142
 21
-196.414
  0
LINE
  8
0
 10
-31.4142
 20
-196.414
 11
-31.6629
 21
-196.111
  0
LINE
  8
0
 10
-31.6629
 20
-196.111
 11
-31.8477
 21
-195.765
  0
LINE
  8
0
 10
-31.8477
 20
-195.765
 11
-31.9616
 21
-195.39
  0
LINE
  8
0
 10
-31.9616
 20
-195.39
 11
-32
 21
-195
  0
LINE
  8
0
 10
-32
 20
-195
 11
-31.9616
 21
-194.61
  0
LINE
  8
0
 10
-31.9616
 20
-194.61
 11
-31.8477
 21
-194.235
  0
LINE
  8
0
 10
-31.8477
 20
-194.235
 11
-31.6629
 21
-193.889
  0
LINE
  8
0
 10
-31.6629
 20
-193.889
 11
-31.4142
 21
-193.586
  0
LINE
  8
0
 10
-31.4142
 20
-193.586
 11
-31.1111
 21
-193.337
  0
LINE
  8
0
 10
-31.1111
 20
-193.337
 11
-30.7654
 21
-193.152
  0
LINE
  8
0
 10
-30.7654
 20
-193.152
 11
-30.3902
 21
-193.038
  0
LINE
  8
0
 10
-30.3902
 20
-193.038
 11
-30
 21
-193
  0
LINE
  8
0
 10
-30
 20
-193
 11
-29.6098
 21
-193.038
  0
LINE
  8
0
 10
-29.6098
 20
-193.038
 11
-29.2346
 21
-193.152
  0
LINE
  8
0
 10
-29.2346
 20
-193.152
 11
-28.8889
 21
-193.337
  0
LINE
  8
0
 10
-28.8889
 20
-193.337
 11
-28.5858
 21
-193.586
  0
LINE
  8
0
 10
-28.5858
 20
-193.586
 11
-28.3371
 21
-193.889
  0
LINE
  8
0
 10
-28.3371
 20
-193.889
 11
-28.1522
 21
-194.235
  0
LINE
  8
0
 10
-28.1522
 20
-194.235
 11
-28.0384
 21
-194.61
  0
LINE
  8
0
 10
-28.0384
 20
-194.61
 11
-28
 21
-195
  0
LINE
  8
0
 10
-28
 20
-195
 11
-28.0384
 21
-195.39
  0
LINE
  8
0
 10
-28.0384
 20
-195.39
 11
-28.1522
 21
-195.765
  0
LINE
  8
0
 10
-28.1522
 20
-195.765
 11
-28.3371
 21
-196.111
  0
LINE
  8
0
 10
-28.3371
 20
-196.111
 11
-28.5858
 21
-196.414
  0
LINE
  8
0
 10
-28.5858
 20
-196.414
 11
-28.8889
 21
-196.663
  0
LINE
  8
0
 10
-28.8889
 20
-196.663
 11
-29.2346
 21
-196.848
  0
LINE
  8
0
 10
-29.2346
 20
-196.848
 11
-29.6098
 21
-196.962
  0
LINE
  8
0
 10
-29.6098
 20
-196.962
 11
-30
 21
-197
  0
LINE
  8
0
 10
-30
 20
-197
 11
-30.3902
 21
-196.962
  0
LINE
  8
0
 10
29.6098
 20
-196.962
 11
29.2346
 21
-196.848
  0
LINE
  8
0
 10
29.2346
 20
-196.848
 11
28.8889
 21
-196.663
  0
LINE
  8
0
 10
28.8889
 20
-196.663
 11
28.5858
 21
-196.414
  0
LINE
  8
0
 10
28.5858
 20
-196.414
 11
28.3371
 21
-196.111
  0
LINE
  8
0
 10
28.3371
 20
-196.111
 11
28.1522
 21
-195.765
  0
LINE
  8
0
 10
28.1522
 20
-195.765
 11
28.0384
 21
-195.39
  0
LINE
  8
0
 10
28.0384
 20
-195.39
 11
28
 21
-195
  0
LINE
  8
0
 10
28
 20
-195
 11
28.0384
 21
-194.61
  0
LINE
  8
0
 10
28.0384
 20
-194.61
 11
28.1522
 21
-194.235
  0
LINE
  8
0
 10
28.1522
 20
-194.235
 11
28.3371
 21
-193.889
  0
LINE
  8
0
 10
28.3371
 20
-193.889
 11
28.5858
 21
-193.586
  0
LINE
  8
0
 10
28.5858
 20
-193.586
 11
28.8889
 21
-193.337
  0
LINE
  8
0
 10
28.8889
 20
-193.337
 11
29.2346
 21
-193.152
  0
LINE
  8
0
 10
29.2346
 20
-193.152
 11
29.6098
 21
-193.038
  0
LINE
  8
0
 10
29.6098
 20
-193.038
 11
30
 21
-193
  0
LINE
  8
0
 10
30
 20
-193
 11
30.3902
 21
-193.038
  0
LINE
  8
0
 10
30.3902
 20
-193.038
 11
30.7654
 21
-193.152
  0
LINE
  8
0
 10
30.7654
 20
-193.152
 11
31.1111
 21
-193.337
  0
LINE
  8
0
 10
31.1111
 20
-193.337
 11
31.4142
 21
-193.586
  0
LINE
  8
0
 10
31.4142
 20
-193.586
 11
31.6629
 21
-193.889
  0
LINE
  8
0
 10
31.6629
 20
-193.889
 11
31.8477
 21
-194.235
  0
LINE
  8
0
 10
31.8477
 20
-194.235
 11
31.9616
 21
-194.61
  0
LINE
  8
0
 10
31.9616
 20
-194.61
 11
32
 21
-195
  0
LINE
  8
0
 10
32
 20
-195
 11
31.9616
 21
-195.39
  0
LINE
  8
0
 10
31.9616
 20
-195.39
 11
31.8477
 21
-195.765
  0
LINE
  8
0
 10
31.8477
 20
-195.765
 11
31.6629
 21
-196.111
  0
LINE
  8
0
 10
31.6629
 20
-196.111
 11
31.4142
 21
-196.414
  0
LINE
  8
0
 10
31.4142
 20
-196.414
 11
31.1111
 21
-196.663
  0
LINE
  8
0
 10
31.1111
 20
-196.663
 11
30.7654
 21
-196.848
  0
LINE
  8
0
 10
30.7654
 20
-196.848
 11
30.3902
 21
-196.962
  0
LINE
  8
0
 10
30.3902
 20
-196.962
 11
30
 21
-197
  0
LINE
  8
0
 10
30
 20
-197
 11
29.6098
 21
-196.962
  0
LINE
  8
0
 10
-55.4877
 20
-211.452
 11
-55.9567
 21
-211.31
  0
LINE
  8
0
 10
-55.9567
 20
-211.31
 11
-56.3889
 21
-211.079
  0
LINE
  8
0
 10
-56.3889
 20
-211.079
 11
-56.7678
 21
-210.768
  0
LINE
  8
0
 10
-56.7678
 20
-210.768
 11
-57.0787
 21
-210.389
  0
LINE
  8
0
 10
-57.0787
 20
-210.389
 11
-57.3097
 21
-209.957
  0
LINE
  8
0
 10
-57.3097
 20
-209.957
 11
-57.452
 21
-209.488
  0
LINE
  8
0
 10
-57.452
 20
-209.488
 11
-57.5
 21
-209
  0
LINE
  8
0
 10
-57.5
 20
-209
 11
-57.452
 21
-208.512
  0
LINE
  8
0
 10
-57.452
 20
-208.512
 11
-57.3097
 21
-208.043
  0
LINE
  8
0
 10
-57.3097
 20
-208.043
 11
-57.0787
 21
-207.611
  0
LINE
  8
0
 10
-57.0787
 20
-207.611
 11
-56.7678
 21
-207.232
  0
LINE
  8
0
 10
-56.7678
 20
-207.232
 11
-56.3889
 21
-206.921
  0
LINE
  8
0
 10
-56.3889
 20
-206.921
 11
-55.9567
 21
-206.69
  0
LINE
  8
0
 10
-55.9567
 20
-206.69
 11
-55.4877
 21
-206.548
  0
LINE
  8
0
 10
-55.4877
 20
-206.548
 11
-55
 21
-206.5
  0
LINE
  8
0
 10
-55
 20
-206.5
 11
-54.5123
 21
-206.548
  0
LINE
  8
0
 10
-54.5123
 20
-206.548
 11
-54.0433
 21
-206.69
  0
LINE
  8
0
 10
-54.0433
 20
-206.69
 11
-53.6111
 21
-206.921
  0
LINE
  8
0
 10
-53.6111
 20
-206.921
 11
-53.2322
 21
-207.232
  0
LINE
  8
0
 10
-53.2322
 20
-207.232
 11
-52.9213
 21
-207.611
  0
LINE
  8
0
 10
-52.9213
 20
-207.611
 11
-52.6903
 21
-208.043
  0
LINE
  8
0
 10
-52.6903
 20
-208.043
 11
-52.548
 21
-208.512
  0
LINE
  8
0
 10
-52.548
 20
-208.512
 11
-52.5
 21
-209
  0
LINE
  8
0
 10
-52.5
 20
-209
 11
-52.548
 21
-209.488
  0
LINE
  8
0
 10
-52.548
 20
-209.488
 11
-52.6903
 21
-209.957
  0
LINE
  8
0
 10
-52.6903
 20
-209.957
 11
-52.9213
 21
-210.389
  0
LINE
  8
0
 10
-52.9213
 20
-210.389
 11
-53.2322
 21
-210.768
  0
LINE
  8
0
 10
-53.2322
 20
-210.768
 11
-53.6111
 21
-211.079
  0
LINE
  8
0
 10
-53.6111
 20
-211.079
 11
-54.0433
 21
-211.31
  0
LINE
  8
0
 10
-54.0433
 20
-211.31
 11
-54.5123
 21
-211.452
  0
LINE
  8
0
 10
-54.5123
 20
-211.452
 11
-55
 21
-211.5
  0
LINE
  8
0
 10
-55
 20
-211.5
 11
-55.4877
 21
-211.452
  0
LINE
  8
0
 10
54.5123
 20
-211.452
 11
54.0433
 21
-211.31
  0
LINE
  8
0
 10
54.0433
 20
-211.31
 11
53.6111
 21
-211.079
  0
LINE
  8
0
 10
53.6111
 20
-211.079
 11
53.2322
 21
-210.768
  0
LINE
  8
0
 10
53.2322
 20
-210.768
 11
52.9213
 21
-210.389
  0
LINE
  8
0
 10
52.9213
 20
-210.389
 11
52.6903
 21
-209.957
  0
LINE
  8
0
 10
52.6903
 20
-209.957
 11
52.548
 21
-209.488
  0
LINE
  8
0
 10
52.548
 20
-209.488
 11
52.5
 21
-209
  0
LINE
  8
0
 10
52.5
 20
-209
 11
52.548
 21
-208.512
  0
LINE
  8
0
 10
52.548
 20
-208.512
 11
52.6903
 21
-208.043
  0
LINE
  8
0
 10
52.6903
 20
-208.043
 11
52.9213
 21
-207.611
  0
LINE
  8
0
 10
52.9213
 20
-207.611
 11
53.2322
 21
-207.232
  0
LINE
  8
0
 10
53.2322
 20
-207.232
 11
53.6111
 21
-206.921
  0
LINE
  8
0
 10
53.6111
 20
-206.921
 11
54.0433
 21
-206.69
  0
LINE
  8
0
 10
54.0433
 20
-206.69
 11
54.5123
 21
-206.548
  0
LINE
  8
0
 10
54.5123
 20
-206.548
 11
55
 21
-206.5
  0
LINE
  8
0
 10
55
 20
-206.5
 11
55.4877
 21
-206.548
  0
LINE
  8
0
 10
55.4877
 20
-206.548
 11
55.9567
 21
-206.69
  0
LINE
  8
0
 10
55.9567
 20
-206.69
 11
56.3889
 21
-206.921
  0
LINE
  8
0
 10
56.3889
 20
-206.921
 11
56.7678
 21
-207.232
  0
LINE
  8
0
 10
56.7678
 20
-207.232
 11
57.0787
 21
-207.611
  0
LINE
  8
0
 10
57.0787
 20
-207.611
 11
57.3097
 21
-208.043
  0
LINE
  8
0
 10
57.3097
 20
-208.043
 11
57.452
 21
-208.512
  0
LINE
  8
0
 10
57.452
 20
-208.512
 11
57.5
 21
-209
  0
LINE
  8
0
 10
57.5
 20
-209
 11
57.452
 21
-209.488
  0
LINE
  8
0
 10
57.452
 20
-209.488
 11
57.3097
 21
-209.957
  0
LINE
  8
0
 10
57.3097
 20
-209.957
 11
57.0787
 21
-210.389
  0
LINE
  8
0
 10
57.0787
 20
-210.389
 11
56.7678
 21
-210.768
  0
LINE
  8
0
 10
56.7678
 20
-210.768
 11
56.3889
 21
-211.079
  0
LINE
  8
0
 10
56.3889
 20
-211.079
 11
55.9567
 21
-211.31
  0
LINE
  8
0
 10
55.9567
 20
-211.31
 11
55.4877
 21
-211.452
  0
LINE
  8
0
 10
55.4877
 20
-211.452
 11
55
 21
-211.5
  0
LINE
  8
0
 10
55
 20
-211.5
 11
54.5123
 21
-211.452
  0
LINE
  8
0
 10
-15
 20
-232
 11
-15
 21
-212
  0
LINE
  8
0
 10
-15
 20
-212
 11
15
 21
-212
  0
LINE
  8
0
 10
15
 20
-212
 11
15
 21
-232
  0
LINE
  8
0
 10
15
 20
-232
 11
-15
 21
-232
  0
LINE
  8
0
 10
-30.4877
 20
-227.452
 11
-30.9567
 21
-227.31
  0
LINE
  8
0
 10
-30.9567
 20
-227.31
 11
-31.3889
 21
-227.079
  0
LINE
  8
0
 10
-31.3889
 20
-227.079
 11
-31.7678
 21
-226.768
  0
LINE
  8
0
 10
-31.7678
 20
-226.768
 11
-32.0787
 21
-226.389
  0
LINE
  8
0
 10
-32.0787
 20
-226.389
 11
-32.3097
 21
-225.957
  0
LINE
  8
0
 10
-32.3097
 20
-225.957
 11
-32.452
 21
-225.488
  0
LINE
  8
0
 10
-32.452
 20
-225.488
 11
-32.5
 21
-225
  0
LINE
  8
0
 10
-32.5
 20
-225
 11
-32.452
 21
-224.512
  0
LINE
  8
0
 10
-32.452
 20
-224.512
 11
-32.3097
 21
-224.043
  0
LINE
  8
0
 10
-32.3097
 20
-224.043
 11
-32.0787
 21
-223.611
  0
LINE
  8
0
 10
-32.0787
 20
-223.611
 11
-31.7678
 21
-223.232
  0
LINE
  8
0
 10
-31.7678
 20
-223.232
 11
-31.3889
 21
-222.921
  0
LINE
  8
0
 10
-31.3889
 20
-222.921
 11
-30.9567
 21
-222.69
  0
LINE
  8
0
 10
-30.9567
 20
-222.69
 11
-30.4877
 21
-222.548
  0
LINE
  8
0
 10
-30.4877
 20
-222.548
 11
-30
 21
-222.5
  0
LINE
  8
0
 10
-30
 20
-222.5
 11
-29.5123
 21
-222.548
  0
LINE
  8
0
 10
-29.5123
 20
-222.548
 11
-29.0433
 21
-222.69
  0
LINE
  8
0
 10
-29.0433
 20
-222.69
 11
-28.6111
 21
-222.921
  0
LINE
  8
0
 10
-28.6111
 20
-222.921
 11
-28.2322
 21
-223.232
  0
LINE
  8
0
 10
-28.2322
 20
-223.232
 11
-27.9213
 21
-223.611
  0
LINE
  8
0
 10
-27.9213
 20
-223.611
 11
-27.6903
 21
-224.043
  0
LINE
  8
0
 10
-27.6903
 20
-224.043
 11
-27.548
 21
-224.512
  0
LINE
  8
0
 10
-27.548
 20
-224.512
 11
-27.5
 21
-225
  0
LINE
  8
0
 10
-27.5
 20
-225
 11
-27.548
 21
-225.488
  0
LINE
  8
0
 10
-27.548
 20
-225.488
 11
-27.6903
 21
-225.957
  0
LINE
  8
0
 10
-27.6903
 20
-225.957
 11
-27.9213
 21
-226.389
  0
LINE
  8
0
 10
-27.9213
 20
-226.389
 11
-28.2322
 21
-226.768
  0
LINE
  8
0
 10
-28.2322
 20
-226.768
 11
-28.6111
 21
-227.079
  0
LINE
  8
0
 10
-28.6111
 20
-227.079
 11
-29.0433
 21
-227.31
  0
LINE
  8
0
 10
-29.0433
 20
-227.31
 11
-29.5123
 21
-227.452
  0
LINE
  8
0
 10
-29.5123
 20
-227.452
 11
-30
 21
-227.5
  0
LINE
  8
0
 10
-30
 20
-227.5
 11
-30.4877
 21
-227.452
  0
LINE
  8
0
 10
29.5123
 20
-227.452
 11
29.0433
 21
-227.31
  0
LINE
  8
0
 10
29.0433
 20
-227.31
 11
28.6111
 21
-227.079
  0
LINE
  8
0
 10
28.6111
 20
-227.079
 11
28.2322
 21
-226.768
  0
LINE
  8
0
 10
28.2322
 20
-226.768
 11
27.9213
 21
-226.389
  0
LINE
  8
0
 10
27.9213
 20
-226.389
 11
27.6903
 21
-225.957
  0
LINE
  8
0
 10
27.6903
 20
-225.957
 11
27.548
 21
-225.488
  0
LINE
  8
0
 10
27.548
 20
-225.488
 11
27.5
 21
-225
  0
LINE
  8
0
 10
27.5
 20
-225
 11
27.548
 21
-224.512
  0
LINE
  8
0
 10
27.548
 20
-224.512
 11
27.6903
 21
-224.043
  0
LINE
  8
0
 10
27.6903
 20
-224.043
 11
27.9213
 21
-223.611
  0
LINE
  8
0
 10
27.9213
 20
-223.611
 11
28.2322
 21
-223.232
  0
LINE
  8
0
 10
28.2322
 20
-223.232
 11
28.6111
 21
-222.921
  0
LINE
  8
0
 10
28.6111
 20
-222.921
 11
29.0433
 21
-222.69
  0
LINE
  8
0
 10
29.0433
 20
-222.69
 11
29.5123
 21
-222.548
  0
LINE
  8
0
 10
29.5123
 20
-222.548
 11
30
 21
-222.5
  0
LINE
  8
0
 10
30
 20
-222.5
 11
30.4877
 21
-222.548
  0
LINE
  8
0
 10
30.4877
 20
-222.548
 11
30.9567
 21
-222.69
  0
LINE
  8
0
 10
30.9567
 20
-222.69
 11
31.3889
 21
-222.921
  0
LINE
  8
0
 10
31.3889
 20
-222.921
 11
31.7678
 21
-223.232
  0
LINE
  8
0
 10
31.7678
 20
-223.232
 11
32.0787
 21
-223.611
  0
LINE
  8
0
 10
32.0787
 20
-223.611
 11
32.3097
 21
-224.043
  0
LINE
  8
0
 10
32.3097
 20
-224.043
 11
32.452
 21
-224.512
  0
LINE
  8
0
 10
32.452
 20
-224.512
 11
32.5
 21
-225
  0
LINE
  8
0
 10
32.5
 20
-225
 11
32.452
 21
-225.488
  0
LINE
  8
0
 10
32.452
 20
-225.488
 11
32.3097
 21
-225.957
  0
LINE
  8
0
 10
32.3097
 20
-225.957
 11
32.0787
 21
-226.389
  0
LINE
  8
0
 10
32.0787
 20
-226.389
 11
31.7678
 21
-226.768
  0
LINE
  8
0
 10
31.7678
 20
-226.768
 11
31.3889
 21
-227.079
  0
LINE
  8
0
 10
31.3889
 20
-227.079
 11
30.9567
 21
-227.31
  0
LINE
  8
0
 10
30.9567
 20
-227.31
 11
30.4877
 21
-227.452
  0
LINE
  8
0
 10
30.4877
 20
-227.452
 11
30
 21
-227.5
  0
LINE
  8
0
 10
30
 20
-227.5
 11
29.5123
 21
-227.452
  0
LINE
  8
0
 10
9.51227
 20
-247.452
 11
9.04329
 21
-247.31
  0
LINE
  8
0
 10
9.04329
 20
-247.31
 11
8.61107
 21
-247.079
  0
LINE
  8
0
 10
8.61107
 20
-247.079
 11
8.23222
 21
-246.768
  0
LINE
  8
0
 10
8.23222
 20
-246.768
 11
7.92133
 21
-246.389
  0
LINE
  8
0
 10
7.92133
 20
-246.389
 11
7.69029
 21
-245.957
  0
LINE
  8
0
 10
7.69029
 20
-245.957
 11
7.54803
 21
-245.488
  0
LINE
  8
0
 10
7.54803
 20
-245.488
 11
7.5
 21
-245
  0
LINE
  8
0
 10
7.5
 20
-245
 11
7.54803
 21
-244.512
  0
LINE
  8
0
 10
7.54803
 20
-244.512
 11
7.69029
 21
-244.043
  0
LINE
  8
0
 10
7.69029
 20
-244.043
 11
7.92133
 21
-243.611
  0
LINE
  8
0
 10
7.92133
 20
-243.611
 11
8.23222
 21
-243.232
  0
LINE
  8
0
 10
8.23222
 20
-243.232
 11
8.61107
 21
-242.921
  0
LINE
  8
0
 10
8.61107
 20
-242.921
 11
9.04329
 21
-242.69
  0
LINE
  8
0
 10
9.04329
 20
-242.69
 11
9.51227
 21
-242.548
  0
LINE
  8
0
 10
9.51227
 20
-242.548
 11
10
 21
-242.5
  0
LINE
  8
0
 10
10
 20
-242.5
 11
10.4877
 21
-242.548
  0
LINE
  8
0
 10
10.4877
 20
-242.548
 11
10.9567
 21
-242.69
  0
LINE
  8
0
 10
10.9567
 20
-242.69
 11
11.3889
 21
-242.921
  0
LINE
  8
0
 10
11.3889
 20
-242.921
 11
11.7678
 21
-243.232
  0
LINE
  8
0
 10
11.7678
 20
-243.232
 11
12.0787
 21
-243.611
  0
LINE
  8
0
 10
12.0787
 20
-243.611
 11
12.3097
 21
-244.043
  0
LINE
  8
0
 10
12.3097
 20
-244.043
 11
12.452
 21
-244.512
  0
LINE
  8
0
 10
12.452
 20
-244.512
 11
12.5
 21
-245
  0
LINE
  8
0
 10
12.5
 20
-245
 11
12.452
 21
-245.488
  0
LINE
  8
0
 10
12.452
 20
-245.488
 11
12.3097
 21
-245.957
  0
LINE
  8
0
 10
12.3097
 20
-245.957
 11
12.0787
 21
-246.389
  0
LINE
  8
0
 10
12.0787
 20
-246.389
 11
11.7678
 21
-246.768
  0
LINE
  8
0
 10
11.7678
 20
-246.768
 11
11.3889
 21
-247.079
  0
LINE
  8
0
 10
11.3889
 20
-247.079
 11
10.9567
 21
-247.31
  0
LINE
  8
0
 10
10.9567
 20
-247.31
 11
10.4877
 21
-247.452
  0
LINE
  8
0
 10
10.4877
 20
-247.452
 11
10
 21
-247.5
  0
LINE
  8
0
 10
10
 20
-247.5
 11
9.51227
 21
-247.452
  0
LINE
  8
0
 10
29.5123
 20
-247.452
 11
29.0433
 21
-247.31
  0
LINE
  8
0
 10
29.0433
 20
-247.31
 11
28.6111
 21
-247.079
  0
LINE
  8
0
 10
28.6111
 20
-247.079
 11
28.2322
 21
-246.768
  0
LINE
  8
0
 10
28.2322
 20
-246.768
 11
27.9213
 21
-246.389
  0
LINE
  8
0
 10
27.9213
 20
-246.389
 11
27.6903
 21
-245.957
  0
LINE
  8
0
 10
27.6903
 20
-245.957
 11
27.548
 21
-245.488
  0
LINE
  8
0
 10
27.548
 20
-245.488
 11
27.5
 21
-245
  0
LINE
  8
0
 10
27.5
 20
-245
 11
27.548
 21
-244.512
  0
LINE
  8
0
 10
27.548
 20
-244.512
 11
27.6903
 21
-244.043
  0
LINE
  8
0
 10
27.6903
 20
-244.043
 11
27.9213
 21
-243.611
  0
LINE
  8
0
 10
27.9213
 20
-243.611
 11
28.2322
 21
-243.232
  0
LINE
  8
0
 10
28.2322
 20
-243.232
 11
28.6111
 21
-242.921
  0
LINE
  8
0
 10
28.6111
 20
-242.921
 11
29.0433
 21
-242.69
  0
LINE
  8
0
 10
29.0433
 20
-242.69
 11
29.5123
 21
-242.548
  0
LINE
  8
0
 10
29.5123
 20
-242.548
 11
30
 21
-242.5
  0
LINE
  8
0
 10
30
 20
-242.5
 11
30.4877
 21
-242.548
  0
LINE
  8
0
 10
30.4877
 20
-242.548
 11
30.9567
 21
-242.69
  0
LINE
  8
0
 10
30.9567
 20
-242.69
 11
31.3889
 21
-242.921
  0
LINE
  8
0
 10
31.3889
 20
-242.921
 11
31.7678
 21
-243.232
  0
LINE
  8
0
 10
31.7678
 20
-243.232
 11
32.0787
 21
-243.611
  0
LINE
  8
0
 10
32.0787
 20
-243.611
 11
32.3097
 21
-244.043
  0
LINE
  8
0
 10
32.3097
 20
-244.043
 11
32.452
 21
-244.512
  0
LINE
  8
0
 10
32.452
 20
-244.512
 11
32.5
 21
-245
  0
LINE
  8
0
 10
32.5
 20
-245
 11
32.452
 21
-245.488
  0
LINE
  8
0
 10
32.452
 20
-245.488
 11
32.3097
 21
-245.957
  0
LINE
  8
0
 10
32.3097
 20
-245.957
 11
32.0787
 21
-246.389
  0
LINE
  8
0
 10
32.0787
 20
-246.389
 11
31.7678
 21
-246.768
  0
LINE
  8
0
 10
31.7678
 20
-246.768
 11
31.3889
 21
-247.079
  0
LINE
  8
0
 10
31.3889
 20
-247.079
 11
30.9567
 21
-247.31
  0
LINE
  8
0
 10
30.9567
 20
-247.31
 11
30.4877
 21
-247.452
  0
LINE
  8
0
 10
30.4877
 20
-247.452
 11
30
 21
-247.5
  0
LINE
  8
0
 10
30
 20
-247.5
 11
29.5123
 21
-247.452
  0
LINE
  8
0
 10
-10.4877
 20
-247.452
 11
-10.9567
 21
-247.31
  0
LINE
  8
0
 10
-10.9567
 20
-247.31
 11
-11.3889
 21
-247.079
  0
LINE
  8
0
 10
-11.3889
 20
-247.079
 11
-11.7678
 21
-246.768
  0
LINE
  8
0
 10
-11.7678
 20
-246.768
 11
-12.0787
 21
-246.389
  0
LINE
  8
0
 10
-12.0787
 20
-246.389
 11
-12.3097
 21
-245.957
  0
LINE
  8
0
 10
-12.3097
 20
-245.957
 11
-12.452
 21
-245.488
  0
LINE
  8
0
 10
-12.452
 20
-245.488
 11
-12.5
 21
-245
  0
LINE
  8
0
 10
-12.5
 20
-245
 11
-12.452
 21
-244.512
  0
LINE
  8
0
 10
-12.452
 20
-244.512
 11
-12.3097
 21
-244.043
  0
LINE
  8
0
 10
-12.3097
 20
-244.043
 11
-12.0787
 21
-243.611
  0
LINE
  8
0
 10
-12.0787
 20
-243.611
 11
-11.7678
 21
-243.232
  0
LINE
  8
0
 10
-11.7678
 20
-243.232
 11
-11.3889
 21
-242.921
  0
LINE
  8
0
 10
-11.3889
 20
-242.921
 11
-10.9567
 21
-242.69
  0
LINE
  8
0
 10
-10.9567
 20
-242.69
 11
-10.4877
 21
-242.548
  0
LINE
  8
0
 10
-10.4877
 20
-242.548
 11
-10
 21
-242.5
  0
LINE
  8
0
 10
-10
 20
-242.5
 11
-9.51227
 21
-242.548
  0
LINE
  8
0
 10
-9.51227
 20
-242.548
 11
-9.04329
 21
-242.69
  0
LINE
  8
0
 10
-9.04329
 20
-242.69
 11
-8.61107
 21
-242.921
  0
LINE
  8
0
 10
-8.61107
 20
-242.921
 11
-8.23222
 21
-243.232
  0
LINE
  8
0
 10
-8.23222
 20
-243.232
 11
-7.92133
 21
-243.611
  0
LINE
  8
0
 10
-7.92133
 20
-243.611
 11
-7.69029
 21
-244.043
  0
LINE
  8
0
 10
-7.69029
 20
-244.043
 11
-7.54803
 21
-244.512
  0
LINE
  8
0
 10
-7.54803
 20
-244.512
 11
-7.5
 21
-245
  0
LINE
  8
0
 10
-7.5
 20
-245
 11
-7.54803
 21
-245.488
  0
LINE
  8
0
 10
-7.54803
 20
-245.488
 11
-7.69029
 21
-245.957
  0
LINE
  8
0
 10
-7.69029
 20
-245.957
 11
-7.92133
 21
-246.389
  0
LINE
  8
0
 10
-7.92133
 20
-246.389
 11
-8.23222
 21
-246.768
  0
LINE
  8
0
 10
-8.23222
 20
-246.768
 11
-8.61107
 21
-247.079
  0
LINE
  8
0
 10
-8.61107
 20
-247.079
 11
-9.04329
 21
-247.31
  0
LINE
  8
0
 10
-9.04329
 20
-247.31
 11
-9.51227
 21
-247.452
  0
LINE
  8
0
 10
-9.51227
 20
-247.452
 11
-10
 21
-247.5
  0
LINE
  8
0
 10
-10
 20
-247.5
 11
-10.4877
 21
-247.452
  0
LINE
  8
0
 10
-30.4877
 20
-247.452
 11
-30.9567
 21
-247.31
  0
LINE
  8
0
 10
-30.9567
 20
-247.31
 11
-31.3889
 21
-247.079
  0
LINE
  8
0
 10
-31.3889
 20
-247.079
 11
-31.7678
 21
-246.768
  0
LINE
  8
0
 10
-31.7678
 20
-246.768
 11
-32.0787
 21
-246.389
  0
LINE
  8
0
 10
-32.0787
 20
-246.389
 11
-32.3097
 21
-245.957
  0
LINE
  8
0
 10
-32.3097
 20
-245.957
 11
-32.452
 21
-245.488
  0
LINE
  8
0
 10
-32.452
 20
-245.488
 11
-32.5
 21
-245
  0
LINE
  8
0
 10
-32.5
 20
-245
 11
-32.452
 21
-244.512
  0
LINE
  8
0
 10
-32.452
 20
-244.512
 11
-32.3097
 21
-244.043
  0
LINE
  8
0
 10
-32.3097
 20
-244.043
 11
-32.0787
 21
-243.611
  0
LINE
  8
0
 10
-32.0787
 20
-243.611
 11
-31.7678
 21
-243.232
  0
LINE
  8
0
 10
-31.7678
 20
-243.232
 11
-31.3889
 21
-242.921
  0
LINE
  8
0
 10
-31.3889
 20
-242.921
 11
-30.9567
 21
-242.69
  0
LINE
  8
0
 10
-30.9567
 20
-242.69
 11
-30.4877
 21
-242.548
  0
LINE
  8
0
 10
-30.4877
 20
-242.548
 11
-30
 21
-242.5
  0
LINE
  8
0
 10
-30
 20
-242.5
 11
-29.5123
 21
-242.548
  0
LINE
  8
0
 10
-29.5123
 20
-242.548
 11
-29.0433
 21
-242.69
  0
LINE
  8
0
 10
-29.0433
 20
-242.69
 11
-28.6111
 21
-242.921
  0
LINE
  8
0
 10
-28.6111
 20
-242.921
 11
-28.2322
 21
-243.232
  0
LINE
  8
0
 10
-28.2322
 20
-243.232
 11
-27.9213
 21
-243.611
  0
LINE
  8
0
 10
-27.9213
 20
-243.611
 11
-27.6903
 21
-244.043
  0
LINE
  8
0
 10
-27.6903
 20
-244.043
 11
-27.548
 21
-244.512
  0
LINE
  8
0
 10
-27.548
 20
-244.512
 11
-27.5
 21
-245
  0
LINE
  8
0
 10
-27.5
 20
-245
 11
-27.548
 21
-245.488
  0
LINE
  8
0
 10
-27.548
 20
-245.488
 11
-27.6903
 21
-245.957
  0
LINE
  8
0
 10
-27.6903
 20
-245.957
 11
-27.9213
 21
-246.389
  0
LINE
  8
0
 10
-27.9213
 20
-246.389
 11
-28.2322
 21
-246.768
  0
LINE
  8
0
 10
-28.2322
 20
-246.768
 11
-28.6111
 21
-247.079
  0
LINE
  8
0
 10
-28.6111
 20
-247.079
 11
-29.0433
 21
-247.31
  0
LINE
  8
0
 10
-29.0433
 20
-247.31
 11
-29.5123
 21
-247.452
  0
LINE
  8
0
 10
-29.5123
 20
-247.452
 11
-30
 21
-247.5
  0
LINE
  8
0
 10
-30
 20
-247.5
 11
-30.4877
 21
-247.452
  0
ENDSEC
  0
SECTION
  2
OBJECTS
  0
DICTIONARY
  0
ENDSEC
  0
EOF
